» » »

Saving Jane, Come Down To Me Tabs (ver.2)

Artists:  A B C D E F G H I J K L M N O P Q R S T U V W X Y Z # 

Come Down To Me Tabs (ver.2)

Saving Jane Tabs
 Rating:
4/5 (4 votes)
Come Down To Me lessons Tabs too difficult? Try these video lessons and learn fast
                its close, make changes if you need to. my first tab.

verse 1
|----------0-0-0-0---0-2-------------------------------0-0-0-0---0-2------------------|
|-4-4-4-2-4--------4-----4-2-2-0-2-2-2-0-4-0---4-4-4-2-4---------4----4-2-2-0-2-2-2-0-|
|-------------------------------------------------------------------------------------|
|------------------------------------------4------------------------------------------|
|-------------------------------------------------------------------------------------|
|-------------------------------------------------------------------------------------|

|-----------------0-0-0-0--0-2-------------------------------0-0-0-0---0-2------------|
|-4-0----4-4-4-2-4--------4----4-2-2-0-2-2-2-0-4-0---4-4-4-2-4---------4-----4-2-2-0--|
|-----4-------------------------------------------------------------------------------|
|------------------------------------------------4------------------------------------|
|-------------------------------------------------------------------------------------|
|-------------------------------------------------------------------------------------|
                              pre-chorus                                                 
                                               chorus
|---------------4-4-6-7-----2----------4-4-6-7-----2--------------6-7-7---6-9-6-7-----|
|-2-2-2-0-4-0-----------4-4---4-4-4-4-2---------4-4---4-4-4-4-2---7------ 7-----------|
|-------------------------------------------------------------------------------------|
|------------4------------------------------------------------------------------------|
|-------------------------------------------------------------------------------------|
|-------------------------------------------------------------------------------------|

|-----6-7-7-------6-9-6-7------------2---------------2-------------------------------|
|-7-7-------7-7-7---------4-4-4-2-2-4--4-2-4-4-4-2-2-4--4-2-4-2-0-0------------------|
|------------------------------------------------------------------------------------|
|------------------------------------------------------------------------------------|
|------------------------------------------------------------------------------------|
|------------------------------------------------------------------------------------|

   verse 2
|----------0-0-0-0---0-2-------------------------------0-0-0-0---0-2------------------|
|-4-4-4-2-4--------4-----4-2-2-0-2-2-2-0-4-0---4-4-4-2-4---------4----4-2-2-0-2-2-2-0-|
|-------------------------------------------------------------------------------------|
|------------------------------------------4------------------------------------------|
|-------------------------------------------------------------------------------------|
|-------------------------------------------------------------------------------------|
                pre-chorus                                                               
               chorus
|--------4-4-6-7-----2--------------4-4-6-7-----2-----------------6-7-7---6-9-6-7---|
|-4-0-----------4-4----4-4-4-4-2------------4-4---4-4-4-4-2------7-------7----------|
|-----------------------------------------------------------------------------------|
|-----4-----------------------------------------------------------------------------|
|-----------------------------------------------------------------------------------|
|-----------------------------------------------------------------------------------|

|----6-7-7-------6-9-6-7------------2---------------2---------------------------------|
|-7-7------ 7-7-7---------4-4-4-2-2-4--4-2-4-4-4-2-2-4--4-2-4-2-0-0-------------------|
|-------------------------------------------------------------------------------------|
|-------------------------------------------------------------------------------------|
|-------------------------------------------------------------------------------------|
|-------------------------------------------------------------------------------------|
            
Submit corrections

comments powered by Disqus
↑ Back to top | Saving Jane Tabs for Come Down To Me. Lyrics for acoustic guitar and electric guitar. Tablatures and chords are parodies/interpretations of the original songs. You may use it for private study, scholarship, research or language learning purposes only