» » »

Saves The Day, Say Youll Never Leave Tabs (ver.1)

Artists:  A B C D E F G H I J K L M N O P Q R S T U V W X Y Z # 

Say Youll Never Leave Tabs (ver.1)

Saves The Day Tabs
Rating:
0/5 (0 votes)
Say Youll Never Leave lessons Tabs too difficult? Try these video lessons and learn fast
                -------------------------------------------------------------------------------
                             Say you'll never leave - saves the day
-------------------------------------------------------------------------------
Tuning: Half-Step down

intro
eb|--------------------------------------------------------------------------|
Bb|--------------------------------------------------------------------------|
Gb|--------------------------------------------------------------------------|
Db|--------------------------------------------------------------------------|
Ab|-----0-2------0-2h3p2p0--------0-2------0-2h3p2p0-------------------------|
Eb|-0-3------0-3-----------3--0-3------0-3-----------------------------------|

verse (timeing not shown) X2
eb|--------------------------------------------------------------------------|
Bb|--------------------------------------------------------------------------|
Gb|--------------------------------------------------------------------------|
Db|-------------4-4---4-4--9-9-----------------------------------------------|
Ab|-2-2---5-5---3-3---2-2--6-6-----------------------------------------------|
Eb|-0-0---3-3----------------------------------------------------------------|

chorus X2
eb|--------------------------------------------------------------------------|
Bb|--------------------------------------------------------------------------|
Gb|---------------------------------------------4-4-4-4----------------------|
Db|-2222222222222222-5555555555555555-444444444-4-4-4-4----------------------|
Ab|-2222222222222222-5555555555555555-333333333-2-2-2-2----------------------|
Eb|-0000000000000000-3333333333333333----------------------------------------|

play intro

play verse

play chorus

bridge pt 1
eb|-0~-----0~----------0~----------------------------------------------------|
Bb|-0~--3~---3~----3~----3~--------------------------------------------------|
Gb|-0~--0~-----0~--0~------0~--4~--------------------------------------------|
Db|-2~--0~---------4~----------4~--9~----------------------------------------|
Ab|-2~--x~---------3~----------2~--6~----------------------------------------|
Eb|-0~--3~-------------------------------------------------------------------|

bridge pt 2 (play the verse but strum each chord continuously)

part after bridge
eb|---------------------2----------------------------------------------------|
Bb|---------------------x-(mute with index finger)---------------------------|
Gb|-12------12----11----x-(mute with ring finger)--4-4-4-4-------------------|
Db|-9--X16--12-X8-12-X8-4--------------------------4-4-4-4-------------------|
Ab|-7-------10----9-----3--------------------------2-2-2-2-------------------|
Eb|--------------------------------------------------------------------------|

play chorus

end on Em chord

| /  slide up
| \  slide down
| h  hammer-on
| p  pull-off
| ~  vibrato
| +  harmonic
| x  Mute note
===============================================================================
            

comments powered by Disqus
↑ Back to top | Saves The Day Tabs for Say Youll Never Leave. Lyrics for acoustic guitar and electric guitar. Tablatures and chords are parodies/interpretations of the original songs. You may use it for private study, scholarship, research or language learning purposes only