» » »

East Coast Tabs (ver.1)

Artists:  A B C D E F G H I J K L M N O P Q R S T U V W X Y Z # 

East Coast Tabs (ver.1)

Saves The Day
Rating:
0/5 (0 votes)

Hard to play? Try these video lessons and learn fast.
                Very nice, short punk song. Here are the parts, in order.

Btw, it's in Drop D.
So, it's even more badass.

Intro:

E|----------------|
B|----------------|
G|-2~--------2x---|
D|-2~--------2x---|
A|-0~--------0x---|
D|----------------| x2


Figure 1:

E|----------------|
B|----------------|
G|-222222-444-777-|
D|-222222-444-777-|
A|-000000-222-555-|
D|----------------| x4


Figure 2:

E|----------------------|
B|----------------------|
G|-222222-444444-777777-|
D|-222222-444444-777777-|
A|-000000-222222-555555-|
D|----------------------| 

E|--------------------------------|
B|--------------------------------|
G|-222222-444444------------------|
D|-222222-444444-000-000-000-000--|
A|-000000-222222-000-000-000-000--|
D|---------------000-000-000-000--| 

E|----------------------|
B|----------------------|
G|-222222-444444-777777-|
D|-222222-444444-777777-|
A|-000000-222222-555555-|
D|----------------------| x2

E|-----------|
B|-----------|
G|-66666-777-|
D|-66666-777-|
A|-44444/555-|
D|-----------| 


Figure 3:

E|----------------------|
B|----------------------|
G|-2222222222-4444-7777-|
D|-2222222222-4444-7777-|
A|-0000000000-2222-5555-|
D|----------------------| x3

E|------|
B|------|
G|-2~---|
D|-2~---|
A|-0~---|
D|------|


Figure 4:

E|-----------------------------------------|
B|-----------------------------------------|
G|-22-2-22-2-----------44-4-44-4-77-7-77-7-|
D|-22-2-22-2-22-2-22-2-44-4-44-4-77-7-77-7-|
A|-00-0-00-0-22-2-22-2-22-2-22-2-55-5-55-5-|
D|-----------22-2-22-2---------------------| x2

E|------------------------------|
B|------------------------------|
G|-222222---------444444-777777-|
D|-222222-2222222-444444-777777-|
A|-000000-2222222-222222-555555-|
D|--------2222222---------------| x4


End:

E|----------------|
B|----------------|
G|-2~--------2x---|
D|-2~--------2x---|
A|-0~--------0x---|
D|----------------|
            
Hard to play? Try these video lessons and learn fast. | Correct




comments powered by Disqus
↑ Back to top | Tablatures and chords are parodies/interpretations of the original songs. You may use it for private study, scholarship, research or language learning purposes only