» » »

Saves The Day, Do You Know What I Love The Most? Bass tabs (ver.1)

Artists:  A B C D E F G H I J K L M N O P Q R S T U V W X Y Z # 

Do You Know What I Love The Most? Bass tabs (ver.1)

Saves The Day Tabs
 Rating:
4/5 (4 votes)
Do You Know What I Love The Most? lessons Tabs too difficult? Try these video lessons and learn fast
                -------------------------------------------------------------------------------
		Do You Know What I Love the Most? – Saves the Day
-------------------------------------------------------------------------------


Tuning: EADG (standard)

Intro
G|-------------------------------------9--8----------------------------------|
D|---------9-------------9---------------------------------------------------|
A|------6-----6-------6-----6-------6--------7--9--7---6--7-/-12-12-12-12----|
E|---7-----------7-7-----------7-7-------------------------------------------|

G|---------------------------------------------------------------------------|
D|---------------------------------------------------------------------------|
A|---12-12-12-12-12-\-4-4--4--4--4-6-7-6-------------------------------------|
E|---------------------------------------------------------------------------|


Singing Starts
G|---------------------------------------------------------------------------|
D|---------------------------------------------------------------------------|
A|----------------------------7-7--7-6--7-7-7--7-6-6------------------4-4--4-|
E|--7-7--7--7--7-9-9--9--9--9------------------------7-7--7--7--4-4--4-------|

G|------------------------------------|
D|------------------------------------|
A|----------------7-7-7-7-7-7-7-7-----|
E|--2-2--2--2-2-/---------------------|


G|---------------------------------------------------------------------------|
D|---------------------------------------------------------------------------|
A|---------------------------7-7--7-6--7-7h9--7-6-7-------------------4-4--4-|
E|-7-7--7--7--7-9-9--9--9--9------------------------7-7--7--7--4-4--4--------|

G|---------------------------------------------------------------------------|
D|---------------------------------------------------------------------------|
A|----------------7-7-7-7-7-7-7-7---4-4-4-4-4-4-4-4-4h6----------------------|
E|--2-2--2--2-2-/------------------------------------------------------------|

G|---------------------------------------------------------------------------|
D|--------9---------9--------------------------------------------------------|
A|-----6-----6----6---6-----------------------------------------7-7-7-6------|
E|--7-----------7-------7--7-4-4--4--4-0-0--0--0-0-2-2--2--2-2---------------|


G|--------------------------------------------------------------------------|
D|------1----------4-------------------------2--1---------------------------|
A|--2-2---2----------2------------------------------------------------------|
E|-----------4-4-4-----4--2--2-2-2--0-0-0-0---------------------------------|

G|--------------------------------------------------------------------------|
D|------1----------4--------------------------------------------------------|
A|--2-2---2----------2-------------/-7-7-7-7-7-7-7-7------------------------|
E|-----------4-4-4-----4--2--2-2-2------------------------------------------|

Play 3 times
G|---------------------------------------------------------------------------|
D|--------1---------4-------------------------2--1---------------------------|
A|--2-2-2---2---------2------------------------------------------------------|
E|------------4-4-4-----4--2--2-2-2--0-0-0-0---------------------------------|

4th time
G|---------------------------------------------------------------------------|
D|--------1---------4------------------------4-4-1—-2-1----------------------|
A|--2-2-2—--2---------2------------------------------------------------------|
E|------------4-4-4-----4--2--2-2-2--0-0-0-0---------------------------------|

Play 3 times
G|---------------------------------------------------------------------------|
D|--------1---------4-------------------------2--1---------------------------|
A|--2-2-2---2---------2------------------------------------------------------|
E|------------4-4-4-----4--2--2-2-2--0-0-0-0---------------------------------|

4th time
G|---------------------------------------------------------------------------|
D|--------1---------4--------------------------------------------------------|
A|--2-2-2---2---------2-------------/-7-7-7-7-7-7-7-7------------------------|
E|------------4-4-4-----4--2--2-2-2------------------------------------------|

Outro
G|-------------------------------------9--8----------------------------------|
D|---------9-------------9---------------------------------------------------|
A|------6-----6-------6-----6-------6--------7--9--7---6--7-/-12-12-12-12----|
E|---7-----------7-7-----------7-7-------------------------------------------|

G|---------------------------------------------------------------------------|
D|---------------------------------------------------------------------------|
A|---12-12-12-12-12-\-4-4--4--4--4-6-7-6-------------------------------------|
E|-----------------------------------------7---------------------------------|


| /  slide up
| \  slide down
| h  hammer-on
| p  pull-off
| ~  vibrato
| +  harmonic
| x  Mute note
===============================================================================
            
Submit corrections

comments powered by Disqus
↑ Back to top | Saves The Day Bass for Do You Know What I Love The Most?. Lyrics for acoustic guitar and electric guitar. Tablatures and chords are parodies/interpretations of the original songs. You may use it for private study, scholarship, research or language learning purposes only