» » »

Save Ferris, Turn It Up Tabs (ver.1)

Artists:  A B C D E F G H I J K L M N O P Q R S T U V W X Y Z # 

Turn It Up Tabs (ver.1)

Save Ferris Tabs
Rating:
0/5 (0 votes)
Turn It Up lessons Tabs too difficult? Try these video lessons and learn fast
                intro:

    C     F   G
E---3-3---------|
B---5-5---------|
G---5-5---7-7-5-|
D---5-5---5-5-3-|
A---3-3---------|
E---3-3---------|

verse:

  C
E--------|
B--------|
G--------|
D-5>-----|
A-3>-----| x4
E--------|

   C              G F
E---------------------------|
B---------------------------|
G-----------------5-7-------|
D--5-5-5-5-5-5-5--3-5-------|
A--3-3-3-3-3-3-3------------|
E---------------------------|
   * * * * * * *

E---------------------------|
B---------------------------|
G---------------------------|
D--5>--4>--2>-------5555555-|
A--3>--2>--0>--3-5--3333333-|
E--------------1-3----------|


Pre chorus:

   E       G       C       F       C       G       F       G
E------------------------------------------------------------------|
B------------------------------------------------------------------|
G------------------------------------------------------------------|
D--7777777---------5555555---------7777777-------------------------|
A--5555555-5555555-3333333-3333333-5555555-5555555-3333333-5555555-|
E----------3333333---------1111111---------3333333-1111111-3333333-|
                                                   ******* *******
                                                    Palm Muting *



Chorus:

   C     F   G
E---3-3---------|      E----------------|
B---5-5---------|      B----------------|
G---5-5---7-7-5-|      G----------------|
D---5-5---5-5-3-|  x7  D--5-5------3h5--|
A---3-3---------|      A--3-3--5h7------|
E---3-3---------|      E----------------|


verse:

  C
E--------|
B--------|
G--------|
D-5>-----|
A-3>-----| x4
E--------|

E----------------|
B----------------|
G----------------|
D---pick-scratch-|
A--\\------------| 
E--\\------------|


   C              G F
E---------------------------|
B---------------------------|
G-----------------5-7-------|
D--5-5-5-5-5-5-5--3-5-------|
A--3-3-3-3-3-3-3------------|
E---------------------------|
   * * * * * * *


E---------------------------|    E---------------------|
B---------------------------|    B---------------------|
G-------------------5555555-|    G---------------------|
D--5>--4>--2>---------------|    D---------------------|
A--3>--2>--0>--3-5--3333333-|    A---------------------|
E--------------1-3----------|    E--pick-scratch---12\-|


Pre chorus:

   E       G       C       F       C       G       F       G
E------------------------------------------------------------------|
B------------------------------------------------------------------|
G------------------------------------------------------------------|
D--7777777---------5555555---------7777777-------------------------|
A--5555555-5555555-3333333-3333333-5555555-5555555-3333333-5555555-|
E----------3333333---------1111111---------3333333-1111111-3333333-|
                                                   ******* *******
                                                    Palm Muting *

Chorus:

   C     F   G
E---3-3---------|      E----------------|
B---5-5---------|      B----------------|
G---5-5---7-7-5-|      G----------------|
D---5-5---5-5-3-|  x7  D--5-5------3h5--|
A---3-3---------|      A--3-3--5h7------|
E---3-3---------|      E----------------|


Bridge:

E-------------------------------------------------------------------------------------------------|
B-------------------------------------------------------------------------------------------------|
G-------------------------------------------------------------------------------------------------|
D----------5555555---------7777777---------5555555-7777777-9999999-10101010101010-12121212121212--|
A--7777777-3333333-3333333-5555555-7777777-3333333-5555555-7777777-88888888888888-10101010101010--|     
E--5555555---------1111111---------5555555--------------------------------------------------------|
                                                   ******* ******* * * * * * * *   * * * * * *
Cont.

E-----
B----
G----
D--
A
E


Chorus:

   C     F   G
E---3-3---------|      
B---5-5---------|     
G---5-5---7-7-5-|      
D---5-5---5-5-3-|  
A---3-3---------|      
E---3-3---------|
            
Submit corrections

comments powered by Disqus
↑ Back to top | Save Ferris Tabs for Turn It Up. Lyrics for acoustic guitar and electric guitar. Tablatures and chords are parodies/interpretations of the original songs. You may use it for private study, scholarship, research or language learning purposes only