» » »

Turn It Up Bass tabs (ver.1)

Artists:  A B C D E F G H I J K L M N O P Q R S T U V W X Y Z # 

Turn It Up Bass tabs (ver.1)

Save Ferris
Rating:
0/5 (0 votes)
Tabs too difficult? Try these video lessons and learn fast.
                I should have tabbed these a long time agobut I didn’t have the cd. 

Intro, Chorus         
G ---------------    ------------ 
D ---------5--3--    -----3--5--- 
A -3>--3>--------    --3>-------- 
E---------------x3  ------------ 

Verse 
G -----------    ------------------- 
D -----3--5--    ------------------- 
A -3>--------    --3--2--0-------3-- 
E -----------x2  -----------1-3----- 

Pre Chorus 
G----------------------------------- 
D --------------------------3>--5>--- 
A-–5>------3>------5>--------------- 
E------3>------1>------3>----------- 

Bridge 
G-----(5)(4)-------------------------------- 
D-----------------3>--0>-------------------- 
A–0>----------3>----------0>--3>--5-7-8-10-- 
E -------------------------------------------
            
Tabs too difficult? Try these video lessons and learn fast.


comments powered by Disqus
↑ Back to top | Tablatures and chords are parodies/interpretations of the original songs. You may use it for private study, scholarship, research or language learning purposes only