» » »

Savatage, Jesus Saves Tabs (ver.1)

Artists:  A B C D E F G H I J K L M N O P Q R S T U V W X Y Z # 

Jesus Saves Tabs (ver.1)

Savatage Tabs
 Rating:
4/5 (6 votes)
Jesus Saves lessons Tabs too difficult? Try these video lessons and learn fast
1
                i don't know if its good...
but listen to every riffs of the song..
fcku!!!!!!!! ulol kau!!!!

   2.                                                              jesus saves
E-]||-|------------------------------------------------------------------------|
B-]||-|---------------------------------------h---p---h---p--------------------|
G-]||o|o------------------------------------1-^-2-^-1-^-2-^-1------3~~~ -------|
D-]||o|o--3----2----0--2---3-----2---0-----------------------------------------|
A-]||-|------------------------------------------------------------------------|
E-]||-|------------------------------------------------------------------------|
                                                                   let ring
    2.                                                              yes he does
E-]------------------------------------------------------------------------------|
B-]-----------------------------------------------------------s------------------|
G-]--------------------h---p---h---p------------------------2--1-------------o---|
D-]-------3----2-----0-^-2-^-0-^-2-^-0-----2~~~ --3---2-----------------------o--|
A-]------------------------------------------------------------------------------|
E-]------------------------------------------------------------------------------|

    1.Jesus was a talker         out of place newyorker    hung out at the....
    2.Jesus started changing     things got really strange saw his t-shirt....
E-]------------------------------------------------------------------------------|
B-]--5~~~ ----------------------5--5~~--------------------5' -5------------------|
G-]--4~~~ ----------------------4--5~~--------------------4' -4------------------|
D-]------------------------------------------------------------------------------|
A-]------------------------------------------------------------------------------|
E-]---------0--0----0--0--0--0------------0--0--0--0----------------0--0--0--0---|


E-]----------------------------------------------------------------------------|
B-]----------------------------------------------------------------------------|
G-]----------------------------------------------------------------------------|
D-]------------------------------------------------------------------3---------|
A-]-------------------------------------------4-----------5--------------------|
E-]---------0----------4----------5--------------------------------------------|

    1.Selling nickel candies    saving all his quarters    bought a cheap.....
    2.Started missing shows     band came down to blows    he no longer cared.
E-]------------------------------------------------------------------------------|
B-]--5~~~ ----------------------5--5~~--------------------5' -5------------------|
G-]--4~~~ ----------------------4--5~~--------------------4' -4------------------|
D-]------------------------------------------------------------------------------|
A-]------------------------------------------------------------------------------|
E-]---------0--0----0--0--0--0------------0--0--0--0----------------0--0--0--0---|


E-]----------------------------------------------------------------------------|
B-]----------------------------------------------------------------------------|
G-]----------2----------1---------------------2-----------1--------------------|
D-]-------------------------------2----------------------------------2---------|
A-]----------------------------------------------------------------------------|
E-]----------------------------------------------------------------------------|

    1.Started playing bars.....
    2.Things got out of hand...
E-]----------------------------------------------------------------------------|
B-]---------------------0-----------------------0----------------------0-------|
G-]------5--------------0-------5---------------0-------5--------------0-------|
D-]------5--------------0-------5---------------0-------5--------------0-------|
A-]------3------x---------------3------x----------------3------x---------------|
E-]----------------------------------------------------------------------------|

    1.Stage                                                       Jesus saves
    2.Rave                                                        Jesus saves
E-]------------------------------------------------------------------------------|
B-]---------------------------------------------------------------x--------------|
G-]---------------------------------------------------------------x---------o----|
D-]------------------------------------2----2-------2------------------------o---|
A-]---------------------2----2----2----2----2-------2----------------------------|
E-]------0----0----0----0----0----0----0----0-------0----------------------------|

                                                                  Jesus saves
E-]----------------------------------------------------------------------------|
B-]-------------------------------------------h---p---h---p--------------------|
G-]o----------------------------------------1-^-2-^-1-^-2-^-1------3~~~ -------|
D-]o------3----2----0--2---3-----2---0-----------------------------------------|
A-]----------------------------------------------------------------------------|
E-]----------------------------------------------------------------------------|

                                                                   yes he does
E-]------------------------------------------------------------------------------|
B-]-----------------------------------------------------------s------------------|
G-]--------------------h---p---h---p------------------------2--1-------------o---|
D-]-------3----2-----0-^-2-^-0-^-2-^-0-----2~~~ --3---2-----------------------o--|
A-]------------------------------------------------------------------------------|
E-]------------------------------------------------------------------------------|

   solo--->
E-]----------------------------------------------------------------------------|
B-]----------------------------------------------------------------------------|
G-]o---------------------------------------------------------------------------|
D-]o---------2----2---------2--2--2--2---------2----2-------2--2--2--2---------|
A-]----------2----2---------2--2--2--2---------2----2-------2--2--2--2---------|
E-]----------0----0---------0--0--0--0---------0----0-------0--0--0--0---------|

                                                                    three times
E-]----------------------------------------------------------------------------|
B-]----------------------------------------------------------------------------|
G-]---------------------------------------------------------------------------o|
D-]-------2----2---------2--2--2--2--------2----2-------2--2--2--2--------2---o|
A-]-------2----2---------2--2--2--2--------2----2-------2--2--2--2--------2----|
E-]-------0----0---------0--0--0--0--------0----0-------0--0--0--0--------0----|

                                                                     four times
E-]--------|-------------------------------------------------------------------|
B-]--------|-------------------------------------------------------------------|
G-]--------|o-----------------------------------------------------------------o|
D-]--------|o-------2----2------2--2--2-------2--2--2-------2------2--2-------o|
A-]--------|--------2----2------2--2--2-------2--2--2-------2------2--2--------|
E-]--------|--------0----0------0--0--0-------0--0--0-------0------0--0--------|


E-]------------------------------------------------------------------------------|
B-]------------------------------------------------------------------------------|
G-]------------------------------------------------------------------------------|
D-]--x-----p---h---p-------------------------p---h---p---------------------------|
A-]--x---5-^-4-^-5-^-4--5---p---h---p------5-^-4-^-5-^-4--5---p---h---p----------|
E-]------------------------5-^-4-^-5-^-4--5------------------5-^-4-^-5-^-4--5----|


E-]----------------------------------------------------------------------------|
B-]----------------------------------------------------------------------------|
G-]o--------------------------------------------------------------------------o|
D-]0----------2----2------2--2--2-------2--2--2-------2------2--2-------------o|
A-]-----------2----2------2--2--2-------2--2--2-------2------2--2--------------|
E-]-----------0----0------0--0--0-------0--0--0-------0------0--0--------------|


E-]----------------------------------------------------------------------------|
B-]----------------------------------------------------------------------------|
G-]----------------------------------------------------------------------------|
D-]------p---h---p-------------------------p---h---p---------------------------|
A-]----5-^-4-^-5-^-4--5---p---h---p------5-^-4-^-5-^-4--5---p---h---p----------|
E-]---------------------5-^-4-^-5-^-4--5------------------5-^-4-^-5-^-4--5-----|

                                                                     four times
E-]----------------------------------------------------------------------------|
B-]----------------------------------------------------------------------------|
G-]o--------------------------------------------------------------------------o|
D-]o--------------------------------------------------------------------------o|
A-]----------5-----------------------------------------------------------------|
E-]---------------3-----0-----3-----0-----4-----0-----4-----5-----7------------|


E-]----------------------------------------------------------------------------|
B-]-------------------------------------------h---p---h---p--------------------|
G-]o----------------------------------------1-^-2-^-1-^-2-^-1------3~~~ -------|
D-]o------3----2----0--2---3-----2---0-----------------------------------------|
A-]----------------------------------------------------------------------------|
E-]----------------------------------------------------------------------------|

                                                                     <---solo
E-]------------------------------------------------------------------------------|
B-]-----------------------------------------------------------s------------------|
G-]--------------------h---p---h---p------------------------2--1-------------o---|
D-]-------3----2-----0-^-2-^-0-^-2-^-0-----2~~~ --3---2-----------------------o--|
A-]------------------------------------------------------------------------------|
E-]------------------------------------------------------------------------------|

     So the dice were cast      today became the past     Jesus just disapeared
E-]------------------------------------------------------------------------------|
B-]--5~~~ ----------------------5--5~~--------------------5' -5------------------|
G-]--4~~~ ----------------------4--5~~--------------------4' -4------------------|
D-]------------------------------------------------------------------------------|
A-]------------------------------------------------------------------------------|
E-]---------0--0----0--0--0--0------------0--0--0--0----------------0--0--0--0---|


E-]----------------------------------------------------------------------------|
B-]----------------------------------------------------------------------------|
G-]----------------------------------------------------------------------------|
D-]------------------------------------------------------------------3---------|
A-]-------------------------------------------4-----------5--------------------|
E-]---------0----------4----------5--------------------------------------------|

     Head for newyork           or so the label thought   there he gave away...
E-]------------------------------------------------------------------------------|
B-]--5~~~ ----------------------5--5~~--------------------5' -5------------------|
G-]--4~~~ ----------------------4--5~~--------------------4' -4------------------|
D-]------------------------------------------------------------------------------|
A-]------------------------------------------------------------------------------|
E-]---------0--0----0--0--0--0------------0--0--0--0----------------0--0--0--0---|


E-]----------------------------------------------------------------------------|
B-]----------------------------------------------------------------------------|
G-]----------2----------1---------------------2-----------1--------------------|
D-]-------------------------------2----------------------------------2---------|
A-]----------------------------------------------------------------------------|
E-]----------------------------------------------------------------------------|

     Last seen drinking wine.....
E-]----------------------------------------------------------------------------|
B-]---------------------0-----------------------0----------------------0-------|
G-]------5--------------0-------5---------------0-------5--------------0-------|
D-]------5--------------0-------5---------------0-------5--------------0-------|
A-]------3------x---------------3------x----------------3------x---------------|
E-]----------------------------------------------------------------------------|

     Strays                                                        Jesus saves
E-]------------------------------------------------------------------------------|
B-]---------------------------------------------------------------x--------------|
G-]---------------------------------------------------------------x--------------|
D-]------------------------------------2----2-------2----------------------------|
A-]---------------------2----2----2----2----2-------2----------------------------|
E-]------0----0----0----0----0----0----0----0-------0----------------------------|

                                                                   Jesus saves
E-]----------------------------------------------------------------------------|
B-]-------------------------------------------h---p---h---p--------------------|
G-]o----------------------------------------1-^-2-^-1-^-2-^-1------3~~~ -------|
D-]o------3----2----0--2---3-----2---0-----------------------------------------|
A-]----------------------------------------------------------------------------|
E-]----------------------------------------------------------------------------|

                                                                     five times
E-]------------------------------------------------------------------------------|
B-]-----------------------------------------------------------s------------------|
G-]--------------------h---p---h---p------------------------2--1-------------o---|
D-]-------3----2-----0-^-2-^-0-^-2-^-0-----2~~~ --3---2-----------------------o--|
A-]------------------------------------------------------------------------------|
E-]------------------------------------------------------------------------------|

                    Here him cut through the night
                    On your late night radio waves
            
Submit corrections

comments powered by Disqus
↑ Back to top | Savatage Tabs for Jesus Saves. Lyrics for acoustic guitar and electric guitar. 1 Tablatures and chords are parodies/interpretations of the original songs. You may use it for private study, scholarship, research or language learning purposes only