» » »

Riddles Are Abound Tonight Bass tabs (ver.3)

Artists:  A B C D E F G H I J K L M N O P Q R S T U V W X Y Z # 

Riddles Are Abound Tonight Bass tabs (ver.3)

Sausage
Rating:
0/5 (0 votes)

Tabs too difficult? Try these video lessons and learn fast.
                PLEASE RATE THIS TAB

intro:
G--------3-----------------------------------------------------------
D--3h4h5--5--3h4h5--"what the hell was that"-------------------------
A--------------------------------------------------------------------
E--------------------------------------------------------------------

verse:
G--------3---------3--xxxxxxxxx-------3---------------------------------------
D--3h4h5--5--3h4h5--5-xxxxxxxxx-3h4h5--5--------------------------------------
A---------------------xxxxxxxxx-----------------------------------------------
E---------------------xxxxxxxxx-----------------------------------------------

the mutes are flamenco. start with downstroke end with upstroke.

after a rest les plays again:
G---00--00--------------------3-----------------
D-----------------------3h4h5-------------------
A-----------------------------------------------
E-3----3--33-3-22-22-22-------------------------
thats basically it for that part. he throws in easy to play variations. 
have fun with this tab!
            
Tabs too difficult? Try these video lessons and learn fast.




comments powered by Disqus
↑ Back to top | Tablatures and chords are parodies/interpretations of the original songs. You may use it for private study, scholarship, research or language learning purposes only