» » »

Sausage, Riddles Are Abound Tonight Bass tabs (ver.1)

Artists:  A B C D E F G H I J K L M N O P Q R S T U V W X Y Z # 

Riddles Are Abound Tonight Bass tabs (ver.1)

Sausage Tabs
 Rating:
4/5 (4 votes)
Riddles Are Abound Tonight lessons Tabs too difficult? Try these video lessons and learn fast
1
                intro

G-------3---------3--xxxxxxxx-------3-------|
D-0-4h5--5-0-4h5---5xxxxxxxx-0-4h5----------|
A--------------------xxxxxxxx---------------|
E--------------------xxxxxxxx-----------15--|
                                       |             |
                                             |
                                      1&2&3&4&

or

G-------3p0-----3p0-xxxxxxxx-------3--------|
D-0-4h5----4h5------xxxxxxxx-0-4h5----------|
A--------------------xxxxxxxx---------------|
E--------------------xxxxxxxx-----------15--|
                                       |             |
                                             |
                                      1&2&3&4&

chorus/solo

G------------------------3---|
D-5-5-5-5---5------0-4h5--5--|  repeat
A----------------------------|
E----------3--3-2-2----------|

sometimes after it repeats a few times he plays the intro again

verse

G---------------------|
D---------------------|
A---------------------|
E-3-3-3-3-3p2-2--2-2--|

before the solo he plays

G--------3---|
D-0-4h5---5--|
A------------|
E------------|

do that alot and add in the dead notes every once and a while (x)


have fun

_terp
            
Submit corrections

comments powered by Disqus
↑ Back to top | Sausage Bass for Riddles Are Abound Tonight. Lyrics for acoustic guitar and electric guitar. 1 Tablatures and chords are parodies/interpretations of the original songs. You may use it for private study, scholarship, research or language learning purposes only