» » »

Girls For Single Men Bass tabs (ver.1)

Artists:  A B C D E F G H I J K L M N O P Q R S T U V W X Y Z # 

Girls For Single Men Bass tabs (ver.1)

Sausage
Rating:
0/5 (0 votes)

Hard to play? Try these video lessons and learn fast.
                This is basically it... by ear.
G|-------------2h3p2h3p2-x-10--------|
D|-------3-3-3------------x-10-------|
A|-3-3-3------------------x-8--------|
E|-------------------------x---------|

Variation
G|-------------2-3-2-3---10--------|
D|-------3-3-3---------3/10--------|
A|-3-3-3--------------------9------|
E|-----------------------------8---|

That's pretty much it. Just fills based off the main riff. Enjoy!
            
Hard to play? Try these video lessons and learn fast. | Correct




comments powered by Disqus
↑ Back to top | Tablatures and chords are parodies/interpretations of the original songs. You may use it for private study, scholarship, research or language learning purposes only