» » »

Sausage, Girls For Single Men Bass tabs (ver.2)

Artists:  A B C D E F G H I J K L M N O P Q R S T U V W X Y Z # 

Girls For Single Men Bass tabs (ver.2)

Sausage Tabs
Rating:
0/5 (0 votes)
Girls For Single Men lessons Tabs too difficult? Try these video lessons and learn fast
                ------------------------------
       Girls For Single Men
------------------------------

Main riff
G|---------------------------x-10-10-|
D|-----------------7h8p7h8p7-x-10-10-|
A|---------8-8-8-88----------x-8--8--|
E|-7-7-7-77--------------------------|

Variations
G|----------------------x-10-10-|
D|-----------------8-7--x-10-10-|
A|--------8-8-8-8-8---8-x-8--8--|
E|-7-7-7-7----------------------|

G|-----------------------10----|
D|---------------7-8-7-10--9---|
A|--------8-8-8-8------------8-|
E|-7-7-7-7---------------------|

                  ........ where all your dreams come true.
            

comments powered by Disqus
↑ Back to top | Sausage Bass for Girls For Single Men. Lyrics for acoustic guitar and electric guitar. Tablatures and chords are parodies/interpretations of the original songs. You may use it for private study, scholarship, research or language learning purposes only