» » »

Satriani Joe, Tear In The Rain Tabs (ver.2)

Artists:  A B C D E F G H I J K L M N O P Q R S T U V W X Y Z # 

Tear In The Rain Tabs (ver.2)

Satriani Joe Tabs
Rating:
0/5 (0 votes)
Tear In The Rain lessons Tabs too difficult? Try these video lessons and learn fast
                Transcription to 'Tears in the rain' (Satch) from 'The Extremist'
  by M van Welie

3/4 A minor 

E-|--------0-----|-------0-----|-------0-----|-------0------|
B-|------3---3---|-----3---3---|-----6---6---|-----3---3----|
G-|o---5-------5-|---4-------4-|---7-------7-|---5-------5-o|
D-|o-7-----------|-3-----------|-6-----------|-7-----------o|
A-|--------------|-------------|-------------|--------------|
E-|--------------|-------------|-------------|--------------|

E-------8-----|-------5-----|-------8-----|-------5-----|
B-----6---6---|-----5---5---|-----6---6---|-----5---5---|
G---9-------9-|---5-------5-|---9-------9-|---5-------5-|
D-7-----------|-7-----------|-7-----------|-7-----------|
A-------------|-------------|-------------|-------------|
E-------------|-------------|-------------|-------------|

E-------0-----|-------0-----|-------0-----|-------0-----|
B-----1---1---|-----1---1---|-----3---3---|-----3---3---|
G---2-------2-|---2-------2-|---4-------4-|---4-------4-|
D-3-----------|-3-----------|-3-----------|-3-----------|
A-------------|-------------|-------------|-------------|
E-------------|-------------|-------------|-------------|

E-------0-----|-------0-----|-------------|-------------|
B-----1---1---|-----3---3---|-------------|-------------|
G---2-------2-|---4-------4-|-------------|-------------|
D-2-----------|-2-----------|-------------|-------------|
A-------------|-------------|-0-2-3-----2-|-0-----------|
E-------------|-------------|-------0-4---|-------------|

E-|--------0-----|-------0-----|-------0-----|-------0------|
B-|------3---3---|-----3---3---|-----6---6---|-----3---3----|
G-|o---5-------5-|---4-------4-|---7-------7-|---5-------5-o|
D-|o-------------|-3-----------|-6-----------|-------------o|
A-|--0-----------|-------------|-------------|-0------------|
E-|--------------|-------------|-------------|--------------|

E-------8-----|-------8-----|-------7-----|-------7-----|
B-----6---6---|-----6---6---|-----10--10--|-----10--10--|
G---9-------9-|---9-------9-|---9-------9-|---9-------9-|
D-0-----------|-0-----------|-------------|-------------|
A-------------|-------------|-------------|-------------|
E-------------|-------------|-8-----------|-8-----------|

E-------0-----|-------0-----|-------1-----|-------0-----|
B-----3---3---|-----3---3---|-----3---3---|-----1---1---|
G---2-------2-|---1-------1-|---2-------2-|---2-------2-|
D-------------|-------------|-------------|-------------|
A-2-----------|-------------|-0-----------|-0-----------|
E-------------|-0-----------|-------------|-------------|

E-------8-----|-------8-----|-------7-----|-------7-----|
B-----6---6---|-----6---6---|-----10--10--|-----10--10--|
G---9-------9-|---9-------9-|---9-------9-|---9-------9-|
D-0-----------|-0-----------|-------------|-------------|
A-------------|-------------|-------------|-------------|
E-------------|-------------|-8-----------|-8-----------|

E-------7-----|-------4-----|-------1-----|-------------|
B-----6---6---|-----3---3---|-----0---0---|-------3-----|
G---7-------7-|---4-------4-|---1-------1-|-----1---1---|
D-6-----------|-3-----------|-0-----------|---3-------3-|
A-------------|-------------|-------------|-2-----------|
E-------------|-------------|-------------|-------------|

E-------------|-------------|-------------|-------------|
B-------3-----|-------0-----|-------1-----|-------0-----|
G-----4---4---|-----1---1---|-----2---2---|-----1---1---|
D---3-------3-|---0-------0-|---2-------2-|---2-------2-|
A-------------|-------------|-------------|-------------|
E-4-----------|-1-----------|-0-----------|-0-----------|

E-------------|-------0-----|-----0-5-7-8-|-------------|
B-------1-----|-----1---1---|---1-----3-5-|-------------|
G-----2---2---|---2-------2-|-2-----------|-------------|
D---2-------2-|-2-----------|-------------|-------------|
A-0-----------|-------------|-------------|-0-----------|
E-------------|-------------|-------------|-------------|
            
Submit corrections

comments powered by Disqus
↑ Back to top | Satriani Joe Tabs for Tear In The Rain. Lyrics for acoustic guitar and electric guitar. Tablatures and chords are parodies/interpretations of the original songs. You may use it for private study, scholarship, research or language learning purposes only