>
 >
Tear In The Rain

Tear In The Rain Bass Tabs

Satriani Joe - Tear In The Rain chords, tabs, tablatures, lyrics

Guitar lessons | Add/correct | Request | Top 50 tabs Artists:  A B C D E F G H I J K L M N O P Q R S T U V W X Y Z 0-9

Tear In The Rain Bass Tabs – Satriani Joe

CD, Sheet music, Poster

Do you like Tear In The Rain? Share with your friends now
Bass TabsBass Tabs v2
Standard Tuning

								To Coda
|----------9-----------------9-------|----------------------------9--------|
|------12----12----------12----12----|-------15-14-15----------12----12----|
|---15----------15----14----------15-|----17----------17----15----------15-|
|-17----------------13---------------|-16----------------17----------------|

|----------17----------------14-------|----------17----------------14-------|
|-------15----15----------14----14----|-------15----15----------14----14----|
|----19----------19----15----------15-|----19----------19----15----------15-|
|-17----------------17----------------|-17----------------17----------------|

|----------9-----------------9--------|----------9-----------------9--------|
|-------10----10----------10----10----|-------12----12----------12----12----|
|----12----------12----12----------12-|----11----------11----11----------11-|
|-13----------------13----------------|-13----------------13----------------|

		                          DC al Coda
|----------9-----------------9--------|---------------------|
|-------10----10----------12----12----|---------------------|
|----12----------12----11----------11-|-0--2--3--------2--0-|
|-12----------------12----------------|----------0--4-------|

Coda
|----------17----------------17-------|-------------------------------------|
|-------15----15----------15----15----|-------19-21-19----------19-21-19----|
|----19----------19----19----------19-|----19----------19----19----------19-|
|-10----------------12----------------|-8-----------------8-----------------|

|--------------------------------------|--------------------------------------|
|-------12-15-12----------12-14-12-----|-------12-15-12----------10-14-10-----|
|----12----------12----11----------11--|----12----------12----12----------12--|
|--7----------------0------------------|-5-----------------5------------------|

|----------17----------------17-------|-------------------------------------|
|-------15----15----------15----15----|-------19-21-19----------19-21-19----|
|----19----------19----19----------19-|----19----------19----19----------19-|
|-10----------------12----------------|-8-----------------8-----------------|

|----------16----------------13----|----------10----------------7----|
|-------15----15----------12----12-|-------9-----9-----------6-----6-|
|----17----------------14----------|----11----------------8----------|
|-16----------------13-------------|-10----------------7-------------|

|-----------7-----------------4----|----------5-----------------4-------|
|--------9-----9-----------6-----6-|-------7-----7-----------6-----6----|
|-----8-----------------5----------|----7-----------7-----7-----------7-|
|--4-----------------1-------------|-0-----------------0----------------|

|---|----------5-----------------9--------|
|---|-------7-----7-----------10----10----|
|---|----7-----------7-----12----------12-|
|-0-|-5-----------------12----------------|

|----------14--------16-------17-|---|
|-------14-----------------------|---|
|----15--------------17-------19-|-0-|
|-17-----------------------------|---|





Comments


Popular Satriani Joe tabs & chords
Always With Me Always With You Live 1 Bass Tabs
Psycho Monkey Bass Tabs
Chords Of Life Tabs
Circles 1 Tabs
Cryin Tabs
Midnigth Tabs
Rubina Live (Intro) Tabs
Strange Tabs
The Mighty Turtle Head Tabs
Zz S Song Tabs


Song lyrics



↑ Back to top | Tablatures and chords are parodies/interpretations of the original songs. You may use it for private study, scholarship, research or language learning purposes only
© 2014 AZChords.com Contact us | Privacy policy | DMCA | Add/correct tabs | Request tabs | Top 50 tabs