» » »

Satriani Joe, Devils Slide Tabs (ver.2)

Artists:  A B C D E F G H I J K L M N O P Q R S T U V W X Y Z # 

Devils Slide Tabs (ver.2)

Satriani Joe Tabs
 Rating:
4/5 (4 votes)
Devils Slide lessons Tabs too difficult? Try these video lessons and learn fast
1
                Devil's Slide- Joe Satriani

I just know the really hard bit that everone wants to learn.  Remember to keep it hard, fast and chunky.  Go easy, this only my 3rd. Tab, & I'm not sure if it's perfect.  I got this off Live in San Francisco, not Engines of Creation, and as such, my version may be screwed.  I may add more to this as I figure out more.  Each bar marking is not a bar, but one 'Slide' as I call them.  It's easy if you're fast enough, as the pattern remains the same.  The important thing is to alternate between up and down strokes.

      V- ^- V- ^  V- ^- V- ^          V- ^- V- ^ V- ^- V- ^         V- ^- V- ^ V- ^- V- ^         
E|------------------------------|------------------------------|-------------------------------
B|------------------------------|------------------------------|-------------------------------
G|------------------------------|------------------------------|-------------------------------
D|------------------------------|------------------------------|-------------------------------
A|------------------------------|---2--2--2--0--2--2--2--0-----|--5--5--5--3--5--5--5--3-------
E|---5--5--5--3--5--5--5--3-----|------------------------------|-------------------------------
     
      V- ^- V- ^ V- ^- V- ^         V- ^- V- ^ V- ^- V- ^           V- ^- V- ^ V- ^- V- ^  
E|------------------------------|------------------------------|-----------------------------|
B|------------------------------|------------------------------|-----------------------------|
G|------------------------------|------------------------------|--2--2--2--0--2--2--2--0-----|
D|--2--2--2--0--2--2--2--0------|--5--5--5--3--5--5--5--3------|-----------------------------|
A|------------------------------|------------------------------|-----------------------------|
E|------------------------------|------------------------------|-----------------------------|

      V- ^- V- ^ V- ^- V- ^          V- ^- V- ^ V- ^- V- ^ 
E|------------------------------|----------------------------|
B|------------------------------|--3--3--3--1--3--3--3--1----|
G|--5--5--5--3--5--5--5--3------|----------------------------|
D|------------------------------|----------------------------|
A|------------------------------|----------------------------|
E|------------------------------|----------------------------|

Have Fun

Oh, BTW, the main riff at the start is



E|-------------------------------------------
B|-------------------------------------------
G|-------------------------------------------
D|-------------------------------------------
A|--5--6-------5--3------5--6-------5--3-----
E|-------------------------------------------

Play on!
            
Submit corrections

comments powered by Disqus
↑ Back to top | Satriani Joe Tabs for Devils Slide. Lyrics for acoustic guitar and electric guitar. 1 Tablatures and chords are parodies/interpretations of the original songs. You may use it for private study, scholarship, research or language learning purposes only