» » »

Satriani Joe, Devils Slide Tabs (ver.1)

Artists:  A B C D E F G H I J K L M N O P Q R S T U V W X Y Z # 

Devils Slide Tabs (ver.1)

Satriani Joe Tabs
 Rating:
4/5 (4 votes)
Devils Slide lessons Tabs too difficult? Try these video lessons and learn fast
                Distortion. Satch also uses a pulsing effect - a phaser maybe?

e|------------------------------------------------------------------|
B|------------------------------------------------------------------|
G|--------14-12--------------------------------14-12-12h14p12-12-14-|
D|-/12-15-------15-14-12h14p12----12~~~-/12-15----------------------|
A|-----------------------------15-----------------------------------|
D|------------------------------------------------------------------|

e|---------------------------------------------------------------------|
B|-------15----------------15------------------------------------------|
G|-14-15----15-14-12-14-15----15-14\--------14-12----------------------|
D|-----------------------------------/12-15-------15-14-12h14p12----12-|
A|---------------------------------------------------------------15----|
D|---------------------------------------------------------------------|

e|---------------------------|---------------------------|
B|---------------------------|---------------------------|
G|---------------------------|---------------------------|
D|-3-5-5-5-5-5-3-5-5-5-5-5-3-|-4-6-6-6-6-6-4-6-6-6-6-6-4-|
A|-3-5-5-5-5-5-3-5-5-5-5-5-3-|-4-6-6-6-6-6-4-6-6-6-6-6-4-|
D|-3-5-5-5-5-5-3-5-5-5-5-5-3-|-4-6-6-6-6-6-4-6-6-6-6-6-4-|

e|---------------------------|
B|---------------------------|
G|---------------------------|
D|-5-7-7-7-7-7-5-7-7-7-7-7-5-|  X6
A|-5-7-7-7-7-7-5-7-7-7-7-7-5-|
D|-5-7-7-7-7-7-5-7-7-7-7-7-5-|

e|----------------------------------------------------------------|
B|-13----------13-15-13-------------------------------------------|
G|----14-12-14----------14-12\7--------14-12----------------------|
D|------------------------------/12-15-------15-14-12h14p12----12-|
A|----------------------------------------------------------15----|
D|----------------------------------------------------------------|

e|----------------------------------------------|
B|----------------------------------------------|
G|-------14----12-14-14h15p14p12h14p12-14h15p14-|
D|-12-12----15----------------------------------|
A|----------------------------------------------|
D|----------------------------------------------|

e|--------------------------------------------------------------------|
B|-------15----------------15-----------------------------------------|
G|-14-15----15-14-12-14-15----15-14--------14-12----------------------|
D|----------------------------------/12-15-------15-14-12h14p12----12-|
A|--------------------------------------------------------------15----|
D|--------------------------------------------------------------------|

e|---------------------------|---------------------------|
B|---------------------------|---------------------------|
G|---------------------------|---------------------------|
D|-3-5-5-5-5-5-3-5-5-5-5-5-3-|-4-6-6-6-6-6-4-6-6-6-6-6-4-|
A|-3-5-5-5-5-5-3-5-5-5-5-5-3-|-4-6-6-6-6-6-4-6-6-6-6-6-4-|
D|-3-5-5-5-5-5-3-5-5-5-5-5-3-|-4-6-6-6-6-6-4-6-6-6-6-6-4-|

e|---------------------------|
B|---------------------------|
G|---------------------------|
D|-5-7-7-7-7-7-5-7-7-7-7-7-5-|
A|-5-7-7-7-7-7-5-7-7-7-7-7-5-|
D|-5-7-7-7-7-7-5-7-7-7-7-7-5-|

Solo - Satch has 8 phrases during the solo in this song. You'll know what I mean when he switches effects or styles. The first 7 phrases are a blur to me, and I only have an idea about the 8th but I'll put it here just to give you some ideas toward the rest of the solo.

Last Phrase of Satch's Solo - 2:28
       T    T    T                     
e|--------------------|            
B|--------------------|         
G|--------------------|         
D|-12--1512-1712-1512-| X3    
A|--------------------|            
D|--------------------|            

      T    T    T    T    T    T    T    T    T    T    T    T
e|----------------------------------------------------------------
B|----------------------------------------------------------------
G|----------------------------------------------------------------
D|-12-1512-1712-1512-1712-1512-1712-1812-1712-1512-1712-1812-1712-
A|----------------------------------------------------------------
D|----------------------------------------------------------------
   T    T    T    T    T    T    T    T    T
e|-----------------------------------------------|
B|-----------------------------------------------|
G|-----------------------------------------------|
D|-1512-1712-1812-1712-1812-1712-1817-1712-18b20-|
A|-----------------------------------------------|
D|-----------------------------------------------|

e|---------------------------------------------------------------------|
B|---------------------------------------------------------------------|
G|--------14-12-----------------------------14-12-14h15p14p12h14p12h14-|
D|-/12-15-------15-14-12h14p12----12-/12-15----------------------------|
A|-----------------------------15--------------------------------------|
D|---------------------------------------------------------------------|

e|---------------------------------------------------------------------|
B|-------15----------------15------------------------------------------|
G|-14-15----15-14-12-14-15----15-14--------14-12-----------------------|
D|----------------------------------/12-15-------15-14-12h14p12----12--|
A|--------------------------------------------------------------15-----|
D|---------------------------------------------------------------------|

e|---------------------------|---------------------------|
B|---------------------------|---------------------------|
G|---------------------------|---------------------------|
D|-3-5-5-5-5-5-3-5-5-5-5-5-3-|-4-6-6-6-6-6-4-6-6-6-6-6-4-|
A|-3-5-5-5-5-5-3-5-5-5-5-5-3-|-4-6-6-6-6-6-4-6-6-6-6-6-4-|
D|-3-5-5-5-5-5-3-5-5-5-5-5-3-|-4-6-6-6-6-6-4-6-6-6-6-6-4-|




e|---------------------------|
B|---------------------------|
G|---------------------------|
D|-5-7-7-7-7-7-5-7-7-7-7-7-5-| X6
A|-5-7-7-7-7-7-5-7-7-7-7-7-5-|
D|-5-7-7-7-7-7-5-7-7-7-7-7-5-|

Then I believe he plays something along these lines:

e|----------------------------|
B|----------------------------|
G|-----5------4------4------2-|
D|---2------2------2------2---| X12
A|-0------0------0------0-----|
D|----------------------------|

He then makes some noise with alot of feedback until we get to this:

e|---------------------------|     |---------------------------|
B|---------------------------|     |---------------------------|
G|---------------------------|     |---------------------------|
D|-3-5-5-5-5-5-3-5-5-5-5-5-3-| X2  |-4-6-6-6-6-6-4-6-6-6-6-6-4-| X2
A|-3-5-5-5-5-5-3-5-5-5-5-5-3-|     |-4-6-6-6-6-6-4-6-6-6-6-6-4-|
D|-3-5-5-5-5-5-3-5-5-5-5-5-3-|     |-4-6-6-6-6-6-4-6-6-6-6-6-4-|

e|---------------------------|
B|---------------------------|
G|---------------------------|
D|-5-7-7-7-7-7-5-7-7-7-7-7-5-| X12
A|-5-7-7-7-7-7-5-7-7-7-7-7-5-|
D|-5-7-7-7-7-7-5-7-7-7-7-7-5-|
            
Submit corrections

comments powered by Disqus
↑ Back to top | Satriani Joe Tabs for Devils Slide. Lyrics for acoustic guitar and electric guitar. Tablatures and chords are parodies/interpretations of the original songs. You may use it for private study, scholarship, research or language learning purposes only