>
 >
The Treaty And The Bridge

The Treaty And The Bridge Guitar Tabs

Satanic Surfers - The Treaty And The Bridge chords, tabs, tablatures, lyrics

Guitar lessons | Add/correct | Request | Top 50 tabs Artists:  A B C D E F G H I J K L M N O P Q R S T U V W X Y Z 0-9

The Treaty And The Bridge Guitar Tabs – Satanic Surfers

CD, Sheet music, Poster

Do you like The Treaty And The Bridge? Share with your friends now
Bass TabsTabsTabs v2
# intro #A X4 !=10! %=pause                        !time!B-888-888-|muted!
E---223-2-3-2-3-2-2-556-5-6-5-6-5-5-778-7-8-7-8-7-7-99-9-9-778-7-7-|
B---333-3-3-3-3-3-3-666-6-6-6-6-6-6-888-8-8-8-8-8-8----888-8-8-|
G-------------------------------------------------------------------|
D-------------------------------------------------------------------|
A-------------------------------------------------------------------|
E-------------------------------------------------------------------|
# intro #B X4 (!last 3 times without pause+strum chords, palm-muting 3rd time)
E---------------------%%%%%%%%%%%%%%--------------------------------|
B---------------------%%%%%%%%%%%%%%--------------------------------|
G---7-----------------%%%%%%%%%%%%%%--------------------------------|
D---7---------------3-%%%%%%%%%%%%%%5---------------7-------5-------|
A---5---------------3-%%%%%%%%%%%%%%5---------------7-------5-------|
E-------------------1-%%%%%%%%%%%%%%3---------------5-------3-------|
# solo #C 0:09 b=bend-up one step k=keep bending h=hammer-on        >  
E------------------------------------------------------------------->
B-----------h---h--------------------------------------------------->
G---7-------575-575---------h---h-------------------2------55b-5b--->
D------------------/7-------575-575------------3--5----------------->
A----------------------------------/5-------555--------------------->
E------------------------------------------------------------------->
>soloC m=palm-muted                                                 >
>------------------------------------------------------------------->
>------5--6-8--6--5----5--6-8--6--5----5--6-8--6--5-8--6--5--------->
>---7---------------7---------------7-----------------------777-777->
>------------------------------------------------------------------->
>------------------------------------------------------------------->
>-----------------------------------------------------------mmm-mmm->
soloC
>---------------------------------------------------------------------------|
>-----------h---h-----------------------------------------6-8b-k-k86--------|
>---7-------575-575---------h---h-----------------5-7---------------7-------|
>------------------/7-------575-575-----------35-7--------------------------|
>----------------------------------/5-------55----------------------|over---|
>-------------------------------------------------------------------|verse--|
:
# verse #A&B X2 *=play 4-8X #=play 3X !2nd time play 1st chord 12X!                                  
E-------------------------------------------------------------------|
B---------------------------*---------------#-----------------------|
G---7----------------*----10---------*----10----#---*---------10----|
D---7--------------10-----10--------7-----10--10---8----------10-10-|
A---5--------------10------8--------7------8---7---8-----------8-10-|
E-------------------8---------------5--------------6--------------8-|
:
# pre-chorus #A *=play 4-7X #=play 3X                                
E-----------------------------------------------------------------------|
B----#--#---*--------#--#---*--------*------*---------------------------|
G---7--3---5--------7--3---5--------3------5--------7--5--3--2--5-------|
D---7--3---5----3-2-7--3---5----3-2-3------5--------7--5--3--3--5-------|
A---5--1---3-------35--1---3-------31------3--------5--3--1--0--3-------|
E-----------------------------------------------------------------------|
# pre-chorus #B *=play 4-7X #=play 3X                                
E-----------------------------------------------------------------------|
B----#--#---*--------#--#---*--------*------*---------------------------|
G---7--3---5--------7--3---5----2-0-3------5--------7--5--3--2--5-------|
D---7--3---5----3-2-7--3---5-------33------5--------7--5--3--3--5-------|
A---5--1---3-------35--1---3--------1------3--------5--3--1--0--3-------|
E-----------------------------------------------------------------------|
:
>>>>>>>to next page...
:
:
:
:
THE TREATY AND THE BRIDGE                                                 2/2
:
# chorus #A X2 *=play 6X with palm-muting
E-------------------------------------------------------------------|
B----*---------------*---------------*-------*-------*--------------|
G---7-----------2---3-----------2---5-------2-------7-----------2---|
D---7--------023-3203--------023-3205-------2-------7--------023-320|
A---5---------------1---------------3-------0-------5---------------|
E-------------------------------------------------------------------|
# chorus #B *=play 6X with palm-muting                              >
E------------------------------------------------------------------->
B----*---------------*---------------*-------*-------*-------------->
G---7-----------2---3-----------2---5-------2-------7-----------2--->
D---7--------023-3203--------023-3205-------2-------7--------023-320>
A---5---------------1---------------3-------0-------5--------------->
E------------------------------------------------------------------->
>chorusB 
>-------------------------------------------------------------------|
>-------------------------------------------------------------------|
>---------------2---------------2-------------------------------2---|
>---3--------023-3200--------023-3202---------------0--------023-320|
>-------------------------------------------4-----------------------|
>-------------------------------------------------------------------|
:
Then play A&BverseA&BX2 (!pause 1st time!), Apre-chorusA or Bpre-chorusB and
AchorusA or BchorusB.
:
# bridge #A&B +=play 6X palm-muted *=play 6X                        >   
E------------------------------------------------------------------->
B------------------------------------------------------------------->
G---7--------------------------------------------------------+------>
D---7---------------3---------------5---------------7-------5------->
A---5---------------3---------------5---------------7-------5------->
E-------------------1---------------3---------------5-------3------->
>A&BbridgeA&B
>--|---------------------------|2X|--------------------------------|--|
>--|-*-------*-----------------------------------------------------|--|
>--|7-------7--------*-------*-------*-------*-------*-------*-----|7-|
>--|7-------7-------3-------3-------5-------5-------7-------5------|7-|
>--|5-------5-------3-------3-------5-------5-------7-------5------|5-|
>--|----------------1-------1-------3-------3-------5-------3------|--|
:
# outro #A&B h=hammer-on *=play 6X +=play 5X with pauses               
E-----------------------------------------------|
B-------------------------------------+---------|
G----*-------*-------*-------*-------7------h-5-|
D---3-------3-------5-------5--------7------57--|
A---3-------3-------5-------5--------5----------|
E---1-------1-------3-------3-------------------|
:





Comments


Popular Satanic Surfers tabs & chords
Don Fade Away Bass Tabs
My Decision Bass Tabs
Soothing Bass Tabs
Big Bad Wolf Tabs
Dickweed Tabs
Miss Bigmouth Tabs
Seed Of Fear Tabs
Egocentric Ukulele
I Scream Ukulele
Truck Driving Punk Ukulele


Song lyrics



↑ Back to top | Tablatures and chords are parodies/interpretations of the original songs. You may use it for private study, scholarship, research or language learning purposes only
© 2014 AZChords.com Contact us | Privacy policy | DMCA | Add/correct tabs | Request tabs | Top 50 tabs