» » »

Satanic Surfers, The Treaty And The Bridge Bass tabs (ver.1)

Artists:  A B C D E F G H I J K L M N O P Q R S T U V W X Y Z # 

The Treaty And The Bridge Bass tabs (ver.1)

Satanic Surfers Tabs
 Rating:
4/5 (4 votes)
The Treaty And The Bridge lessons Tabs too difficult? Try these video lessons and learn fast
                THE TREATY AND THE BRIDGE by Satanic Surfers. Album : Hero of Our Time (1995)
Absolutely fantastic! ABSOLUTELY FANTASTIC!!!!!!!!!!!!!!!!!!!!!!!!!!!!!!! 1/2
:                                                                           
# intro # %=pause
G---------------------%%%%%%%%%%%%%%--------------------------5-----|
D---------------------%%%%%%%%%%%%%%------------------------57-7-57-|
A---5-----------------%%%%%%%%%%%%%%----------------0---------------|
E-------------------1-%%%%%%%%%%%%%%3-------------------------------|
:
# intro2 # |=rhythm line                                            >
G-------------5--------5-------5-------------3---------5------------>
D-----------57-7-57-33---33333---33355-5---35-53-35-77---77755-3-533>
A---55-5-55------------------------------35------------------------->
E---|---------------|---------------|---------------|--------------->
intro2                                                             >
-------------5----------------------------------------------------->
-----------57-7-57---------11-------------------------------------->
---55-5-55--------------13---31-13------23-5--3--2----------------->
---|---------------11-1------------33-3------------55-5-5-533333333>
intro2             |               |
G-------------5--------5-------5-------------3----------------------|
D-----------57-7-57-33---33333---33355-5---35-53-35-7777-77-5555-55-|
A---55-5-55------------------------------35-------------------------|
E---|---------------|---------------|---------------|---------------|
:
# verse #                                                           >
G----------------------------------------------------10-8----------->
D--------------------------------------------------------10-8-8-7\-->
A---5---------------------------------------------8----------------->
E-----------------------------------8---8---8-8-8------------------->
verse                                                            >
---0---0-0-0-0-0-8---8-8-7---7-7-7-----------------------8------->
-----------------------------------6---6-6-6-6-6-6-6-6-6-----8--->
verse                                                              >
-------------------9--10-9---5-7--------------------10-8----------->
--------------------------------------------------------10-8-8-7\-->
---5---5-5-5-5-5-5-------------------------------8----------------->
-----------------------------------8---8---8-8-8------------------->
verse                                                             
---0---0-0-0-0-0-8---8-8-7---7-7-7-----------------------8-------|
-----------------------------------6---6-6-6-6-6-6-6-6-6-----8---|
:
# pre-chorus # *=play 5-7X                                          >
G------------------------------------------------------------------->
D---------------------------3--2----------------------------3--2---->
A---5-5-5-1---1-1-3---3-3-3-------3-5-5-5-1---1-1-3---3-3-3-------3->
E------------------------------------------------------------------->
pre-chorus
----*-------------*------------------------------------------------|
---1-------------3-----------------5-----3-----1-----0-----3-------|
:
# chorus # X2 *=play 5-7X                                           >
G---------------------------2-------------------------------2------->
D---------------------0-2-3---3-2-0-------------------0-2-3---3-2-0->
A---5---5-5-5-5---5-----------------1---1-1-1-1---1----------------->
E------------------------------------------------------------------->
chorus
----*-------------*-------------------------10---9---910-9-7-------|
---3-------------0-----------------5---5-5-5-----------------8-7-5-|
Then play verse and pre-chorus.>>>>>>>>>to next page...
THE TREATY AND THE BRIDGE                                                 2/2  
:
# chorus2 # X2 *=play 5-7X                                          >
G---------------------------2-------------------------------2------->
D---------------------0-2-3---3-2-0-------------------0-2-3---3-2-0->
A---5---5-5-5-5---5-----------------1---1-1-1-1---1----------------->
E------------------------------------------------------------------->
chorus2
----*-------------*-----------------------1210---9---910-9-7-------|
---3-------------0-----------------5---5-5-------------------8-7-5-|
:
# DIE # h=hammer-on |=rhythm line                                   >
G---------------------------------------------------8--------------->
D--------------------------------------------7-8-10----10-8-----8--->
A---5-5---5---5---5-5-5---5---5-5---8-8---8------------------10----->
E-----------------------------------|------------------------------->
DIE                                                                >
------------------10--1210----------------------------------------->
-------------10/12----------1210----------------------------------->
--1010--1010----------------------1212--121212--1210-810-810-810-7->
-----------------------------------|------------------------------->
DIE                                                                >
--------------5-------5----7--5-------------------10--------------->
-----------5h7---7-5h7---7-------7--------10--------------10------->
---5-5---5-------------------------8-8---8---8---8---8---8---8---8->
-----------------------------------|------------------------------->
DIE                                                                >
--------------------10--------------------------------------------->
--------------8-1012----1210-8------------10---------------7------->
--10-----81010------------------101212--12--121212-810-810--10-8-7->
-----810---------------------------|------------------------------->
DIE                                                                >
--------------5-------5----7--5-----------10------1012------------->
-----------5h7---7-5h7---7-------7-----------------------810\810\8->
---5-5---5-------------------------8-8---8---8---8----------------->
-----------------------------------|------------------------------->
DIE                                                                 
--------------------------10----------------14--12-----------------------|
-------------------8101212--121010--10--1214------1210----1210-----------|
--1010-------81010----------------12------------------1210----1210-------|
---------810-----------------------|------------------------------10-----|
:
# outro # h=hammer-on                                               >
G--------------------------------------------------------------7--5->
D-----------------1-3-1-----------------------------3-5---7--------->
A-----------1-3-----------3-1-3---1---------2/3-/-5----------------->
E---1-1---1-------------------------3-3---3------------------------->
outro
----------------------5-----|
------------------5h7-------|
----5--5--5--5--5-----------|
----------------------------|
:
THEIR BEST SONG! PROBABLY THE BEST SONG IN THE WORLD!!!!!!!
            
Submit corrections

comments powered by Disqus
↑ Back to top | Satanic Surfers Bass for The Treaty And The Bridge. Lyrics for acoustic guitar and electric guitar. Tablatures and chords are parodies/interpretations of the original songs. You may use it for private study, scholarship, research or language learning purposes only