» » »

Beer Tabs (ver.2)

Artists:  A B C D E F G H I J K L M N O P Q R S T U V W X Y Z # 

Beer Tabs (ver.2)

Saron Gas
Rating:
3/5 (2 votes)

Hard to play? Try these video lessons and learn fast.
                There have been few mistakes in the (incomplete) tab you can find everywhere of 
beer. This have been tabbed for two guitar. Here's my corrected version:

Tuning: Drop D

Intro:

E |--------------------------------|
B |--------------------------------|
G |--------------------------------|X3
D |-----4-------4------------------|
A |---4---4---4---4----------------|
D |-4-------5--------4-4-4-4-5-5-2-|

Chorus:

E |------------------------|
B |------------------------|
G |------------------------|
D |---------------------4~~|
A |-------------------2----|
D |-4-4-4-4-5-5-2-4--------|

E |------------------------|
B |------------------------|
G |---------------------9--|X2
D |-4444-5555-7777-9/10-9--|
A |-4444-5555-7777-9/10-7--|
D |-4444-5555-7777-9/10----|

Guitar 1:
E |------------------------|
B |------------------------|
G |---------------------9--|X4
D |-4444-5555-7777-9/10-9--|
A |-4444-5555-7777-9/10-7--|
D |-4444-5555-7777-9/10----|

Guitar 2:
E |------------------------|
B |-------5---------5------|
G |--6---------6-----------|X4
D |------------------------|
A |------------------------|
D |------------------------|


Verse:

E |---------------|
B |---------------|
G |---------------|X8
D |---------------|
A |---------------|
D |-4-4-4-4-5-5-2-|

Guitar 1:
E |---------------|
B |---------------|
G |---------------|X3
D |---------------|
A |---------------|
D |-4-4-4-4-5-5-2-|

Guitar 2:
E |---------------|
B |---------5b~---|
G |---------------|X3
D |---------------|
A |---------------|
D |---------------|

Chorus:

E |------------------------|
B |------------------------|
G |------------------------|
D |---------------------4~~|
A |-------------------2----|
D |-4-4-4-4-5-5-2-4--------|

E |------------------------|
B |------------------------|
G |---------------------9--|X2
D |-4444-5555-7777-9/10-9--|
A |-4444-5555-7777-9/10-7--|
D |-4444-5555-7777-9/10----|

Guitar 1:
E |------------------------|
B |------------------------|
G |---------------------9--|X4
D |-4444-5555-7777-9/10-9--|
A |-4444-5555-7777-9/10-7--|
D |-4444-5555-7777-9/10----|

Guitar 2:
E |------------------------|
B |-------5---------5------|
G |--6---------6-----------|X4
D |------------------------|
A |------------------------|
D |------------------------|

Verse:
E |------------------9b10r9------------------------|
B |------------------------------------------7b8r7-|
G |------------------------------------------------|X2
D |------------------------------------------------|
A |------------------------------------------------|
D |-4-4-4-4-5-5-2-4---------4-4-4-4-5-5-2-4--------|

Guitar 1:
E |------------------------------------------------|
B |------------------------------------------------|
G |------------------------------------------------|
D |------------------------------------------------|
A |------------------------------------------------|
D |-4-4-4-4-5-5-2-4---------4-4-4-4-5-5-2-4--------|

Guitar 2:
E |------------------------------------------------|
B |-7~----------------------5~---------------------|
G |-6~----------------------6~---------------------|
D |------------------------------------------------|
A |------------------------------------------------|
D |------------------------------------------------|

Chorus:

E |----------|
B |----------|
G |----------|
D |-------4~~|
A |----2-----|
D |----------|

E |------------------------|
B |------------------------|
G |---------------------9--|X2
D |-4444-5555-7777-9/10-9--|
A |-4444-5555-7777-9/10-7--|
D |-4444-5555-7777-9/10----|

Guitar 1:
E |------------------------|
B |------------------------|
G |---------------------9--|X4
D |-4444-5555-7777-9/10-9--|
A |-4444-5555-7777-9/10-7--|
D |-4444-5555-7777-9/10----|

Guitar 2:
E |------------------------|
B |-------5---------5------|
G |--6---------6-----------|X4
D |------------------------|
A |------------------------|
D |------------------------|


Guitar 1:
E |------------------------|
B |------------------------|
G |---------------------9--|X4
D |-4444-5555-7777-9/10-9--|
A |-4444-5555-7777-9/10-7--|
D |-4444-5555-7777-9/10----|

Guitar 2:
E |------------------------|
B |------------------------|
G |--6---7p4---6---4-------|X4
D |------------------------|
A |------------------------|
D |------------------------|
Outro:

E |---------------------------------------------------------|
B |---------------------------------------------------------|
G |------------------6p4p0-6p4p0-------------------5b6r5----|X2
D |---------------------------------------------------------|
A |-4-4-4-4-5-5-2-4---------------4-4-4-4-5-5-2-4-----------|
D |-4-4-4-4-5-5-2-4---------------4-4-4-4-5-5-2-4-----------|

E |-----------------|
B |-----------------|
G |-----------------|
D |-4-4-4-4-5-5-2-4-|
A |-4-4-4-4-5-5-2-4-|
D |-4-4-4-4-5-5-2-4-|


| r  release
| b  bend
| /  slide up
| \  slide down
| h  hammer-on
| p  pull-off
| ~  vibrato
| +  harmonic
| x  Mute note
            
Hard to play? Try these video lessons and learn fast. | Correct




comments powered by Disqus
↑ Back to top | Tablatures and chords are parodies/interpretations of the original songs. You may use it for private study, scholarship, research or language learning purposes only