» » »

Saron Gas, Beer Bass tabs (ver.1)

Artists:  A B C D E F G H I J K L M N O P Q R S T U V W X Y Z # 

Beer Bass tabs (ver.1)

Saron Gas Tabs
 Rating:
4/5 (4 votes)
Beer lessons Tabs too difficult? Try these video lessons and learn fast
1
                -------------------------------------------------------------------------------
			     SONG NAME - Band Name
-------------------------------------------------------------------------------



Tuning: Drop D

Verse
0:02
G|-----------------------|
D|-----------------------|
A|-----------------------|
D|-4-4-4-4-5-5-5-5-| x11-|

Chorus
0:23
G|---------------------------------|
D|---------------------------------|
A|------------------0-0-0-0-2-3-2--|
D|-4-4-4-4-5-5-5-5-----------------| x6

0:48
Verse x11

1:09
Chorus x6

1:30
Bridge
G|--------------------------------------------------|
D|--------------------------------------------------|
A|--------------------------------------------------|
D|-4-4-4-4-5-5-5-2-4---4-4-4-4-5-5-5-2-4--10b11-----|

Bridge ends with
G|----------------------|
D|----------------------|
A|----------------------|
D|-4-4-4-4-5-5-5-2-4----|

1:55
Chorus x12

2:31
Bridge x2

End the song with the bridge ending.


| /  slide up
| \  slide down
| h  hammer-on
| p  pull-off
| ~  vibrato
| +  harmonic
| x  Mute note
| b  bend
===============================================================================
            
Submit corrections

comments powered by Disqus
↑ Back to top | Saron Gas Bass for Beer. Lyrics for acoustic guitar and electric guitar. 1 Tablatures and chords are parodies/interpretations of the original songs. You may use it for private study, scholarship, research or language learning purposes only