» » »

Seven Years Tabs (ver.1)

Artists:  A B C D E F G H I J K L M N O P Q R S T U V W X Y Z # 

Seven Years Tabs (ver.1)

Saosin
Rating:
0/5 (0 votes)

Hard to play? Try these video lessons and learn fast.
                
Standard E, Down 1 Step (D,G,C,F,A,D)

Verse - ["Taking on, 7 years.."]
|--------------------------------------------------|
|-----3-----------3------------3-----------3-------|
|---0---0---0---0---0---0----0---0---0---0---0---0-|
|--------------------------------------------------|
|--------------------------3-------3---3-------3---|
|-0-------0---0-------0----------------------------|

"The story ends"
|-------------|
|-----3-------|
|---0---0---0-|
|-0-------0---|
|-------------|
|-------------|
                                                                              
Chorus - Same as verse but with this part added:
["I know, that without you.."]
|--------------------------------------------------|
|-----3-----------3------------3-----------3-------|
|---0---0---0---0---0---0----0---0---0---0---0---0-|
|-0-------0---0-------0----------------------------|
|--------------------------2-------2---3-------3---|
|--------------------------------------------------|

Bridge - Repeat a few times ["Don't treat me I'm to blame.."]
|--------------------------------------------------|
|---3-------------3--------------------------------|
|-----0-------------0------------------------------|
|--------------------------------------------------|
|--------------------------------------------------|
|-0-------0-----0-------0--------------------------|

|--------------------------------------------------|
|---3-------------3--------------------------------|
|-----0-------------0------------------------------|
|---------------0-----0----------------------------|
|-3-------3----------------------------------------|
|--------------------------------------------------|
            
Hard to play? Try these video lessons and learn fast. | Correct




comments powered by Disqus
↑ Back to top | Tablatures and chords are parodies/interpretations of the original songs. You may use it for private study, scholarship, research or language learning purposes only