» » »

Saosin, Seven Years Tabs (ver.2)

Artists:  A B C D E F G H I J K L M N O P Q R S T U V W X Y Z # 

Seven Years Tabs (ver.2)

Saosin Tabs
 Rating:
4/5 (4 votes)
Seven Years lessons Tabs too difficult? Try these video lessons and learn fast
                * = harmonic/palm mute



GUITAR 1

Verse: 3x "Taking on seven years..."
D|------------------------------------------------
A|------------------------------------------------
F|------------------------------------------------
C|----12--12------12--12------12--12------12--12--
G|--10--10--10--10--10--10--10--10--10--10--10--10
D|12----------12-----------8-----------8----------

Verse Cont'd: 1x "Getting off my chest..."
D|------------------------------------------------
A|------------------------------------------------
F|------------------------------------------------
C|----12--12------12--12------12--12------12--12--
G|--10--10--10--10--10--10--10--10--10--10--10--10
D|12----------12-----------8----------10----------

Pre-chorus: 1x "I would find a way without you..."
D|-----------------------------------------------
A|-----------------------------------------------
F|1--11-121211-1---14-1616-14--5555555555555555--
C|2---x--x-x-x-2----x--x-x--x--5555555555555555--
G|2---9/1010\9-2---12/1414\12--3333333333333333--
D|0------------0---------------------------------

Pre-chorus Cont'd: 1x
D|------------------------------------------------------------
A|------------------------------------------------------------
F|---------7-------------7-------------------------7----------
C|-----------------------------------------7-----7---10-9-----
G|7-9-10-9---9--7-9-10-9---9--7-9/10--9-10----10----------10--
D|

Chorus/Outro: Play over and over "This mistake was gold"
D|-------18-------
A|19-------19-18--
F|----18----------
C|--16------------
G|----------------
D|----------------

Verse
Pre-chorus
Chorus
Outro


GUITAR 2

Verse: 3x "Taking on seven years..."
D|------------------------------------------------
A|------------------------------------------------
F|------------------------------------------------
C|--------12----------12----------12----------12--
G|--10--10--10--10--10--10--10--10--10--10--10--10
D|12--12------12--12-------8--12-------8--12------

Verse Cont'd: 1x "Getting off my chest..."
D|------------------------------------------------
A|------------------------------------------------
F|------------------------------------------------
C|--------12----------12----------12----------12--
G|--10--10--10--10--10--10--10--10--10--10--10--10
D|12--12------12--12-------8--12------10--12------

Pre-chorus: 2x "I would find a way without you..."
D|--------------------------------------|----|
A|----*5--------------------------------|----|
F|1-----*5--11-121211--5555555555555555-|----|
C|2----------x--x-x-x--5555555555555555-|----|<- Only play this second time
G|2----------9/1010\9--3333333333333333-|----|
D|0-------------------------------------|12\0|


Chorus: 1x "This mistake was gold"
D|-------------------------------------------------
A|-------------------------------------------------
F|11111111111111117777777777777777-----------------
C|222222222222222277777777777777779999999910101010-
G|222222222222222255555555555555559999999910101010-
D|0000000000000000----------------7777777788888888-

Chorus Cont'd: 1x 
D|--------------------------------------------------------------------------------------
A|--------------------------------------------------------------------------------------
F|11111111111111117777777777777777------------------------------------------------------
C|22222222222222227777777777777777-----12-----------12------------12-----------12-------
G|22222222222222225555555555555555--10---10-10---10---10-10----10---10-10---10---10-10--
D|0000000000000000----------------77--7----7---77--7----7----66--6----6---66--6----6----
                                  **  *    *   **  *    *    **  *    *   **  *    *

Verse
Pre-Chorus
Chorus

Interlude: 1x
D|------------
A|------------
F|111-1--111-1
C|222-2--222-2
G|222-2--222-2
D|000-0--000-0

Outro: 5x "Dont treat me Im to blame..."
D|----------------------------
A|----------------------------
F|111-1--111-1--555-5--777-7--
C|222-2--222-2--555-5--777-7--
G|222-2--222-2--333-3--555-5--
D|000-0--000-0----------------
            
Submit corrections

comments powered by Disqus
↑ Back to top | Saosin Tabs for Seven Years. Lyrics for acoustic guitar and electric guitar. Tablatures and chords are parodies/interpretations of the original songs. You may use it for private study, scholarship, research or language learning purposes only