» » »

Come Close Tabs (ver.2)

Artists:  A B C D E F G H I J K L M N O P Q R S T U V W X Y Z # 

Come Close Tabs (ver.2)

Saosin
Rating:
5/5 (1 vote)

Hard to play? Try these video lessons and learn fast.
                (Intro)
Guitar 1

D:---------------------------------------------------|
A:---------------------------------------------------|
F:12--------15--15-14--14--10--10-10-10-10-10-10-10--|
C:x--------------------------------------------------|
G:10--------13--13-12--12--8---8--8--8--8--8--8--8---|
C:---------------------------------------------------|
  16 times

D:---------------------------------------------------|
A:---------------------------------------------------|
F:12--------15--15-17--17--14--14-14-14-14-14-14-14--|
C:x--------------------------------------------------|
G:10--------13--13-15--15--12--12-12-12-12-12-12-12--|
C:---------------------------------------------------|
  16 times

Guitar 2

D:-------------------------------------------------|
A:-------------------------------------------------|
F:------------------------3--3--3----3-3-3-3-3-3-3-|
C:5----5-5-5-5-5-5-5-5----1--1--1----1-1-1-1-1-1-1-|
G:5----5-5-5-5-5-5-5-5----1--1--1----1-1-1-1-1-1-1-|
C:5----5-5-5-5-5-5-5-5----1--1--1----1-1-1-1-1-1-1-|

I'm probably not going to finish this bad it's to get everyone started and just to have 
tabs of their new songs up.
            
Hard to play? Try these video lessons and learn fast. | Correct




comments powered by Disqus
↑ Back to top | Tablatures and chords are parodies/interpretations of the original songs. You may use it for private study, scholarship, research or language learning purposes only