» » »

Saosin, Come Close Tabs (ver.1)

Artists:  A B C D E F G H I J K L M N O P Q R S T U V W X Y Z # 

Come Close Tabs (ver.1)

Saosin Tabs
Rating:
3/5 (2 votes)
Hard to play? Try these video lessons and learn fast.
                Hi guys 
If you have any questions ,Feel free to ask me and if you found any incorrect
parts please correct them


Intro
Verse1
Pre-Chorus
Chorus
Intro
Verse2
Pre-chorus
Chorus
Bridge
Chorus
The ending part

-------------------------------------------------------------------------------
-------------------------------------------------------------------------------

Tuning:C drop (CGCFAd)


Intro

Lead guitar (Strum fastly)
d|---------------------------------------------------------------------------|
A|-8----11---10---6----8----11---13----10------------------------------------|
F|---------------------------------------------------------------------------|
C|-5----8----7----3----5----8----10----7-------------------------------------|
G|---------------------------------------------------------------------------|
C|---------------------------------------------------------------------------|
Rhythm guitar(strum chords and tremolo pick single notes)
d|---------------------------------------------------------------------------|
A|---------------------------------------------------------------------------|
F|----------------------------------------5----7-----------------------------|
C|-5----8----3----5----5----8----7-------------------------------------------|
G|-5----8----3----5------------------8---------------------------------------|
C|-5----8----3----5----------------------------------------------------------|



Verse

Lead guitar
|-----------------13----------------------10--11------10-|
|-11--10--------------13--11--10------------------13-----|
|---------10----------------------10---------------------| X 4
|-------------12----------------------12-----------------|
|--------------------------------------------------------|
|--------------------------------------------------------|

Rhythm guitar
|----|
|----|
|----| When Verse comes play it just once not strum
|-5--|  
|-5--|
|-5--|
Rhythm guitar
|--------------------------|
|--------------------------|
|--------------------------| play this only for verse2 and comes second time 
|-s5--8--8s3--s5--8--10--7-|
|--------------------------|
|--------------------------|



Pre-Chorus

Rhythm guitar (Lead guitar rests)
|-------------------------------------------------------------------------|
|--------------------------11-11-11-----11-11-11-10-10-10-6--6------------|
|-------------------------------------------------------------------------|
|-(12)s1-1-1-1-1-1-1-1-5-5-8--8--8--5-5-8--8--8--7--7--7--3--3------------|
|-(12)s1-1-1-1-1-1-1-1-5-5----------5-5-----------------------------------|
|-(12)s1-1-1-1-1-1-1-1-5-5----------5-5-----------------------------------|

|--------------------------------------------------------------------|
|---------------------11-11-11----11-11-11-11-15-15-15-15------------|
|--------------------------------------------------------------------|
|-1-1-1-1-1-1-1-1-5-5-8--8--8-5-5-8--8--8--8--12-12-12-12------------|
|-1-1-1-1-1-1-1-1-5-5---------5-5------------------------------------|
|-1-1-1-1-1-1-1-1-5-5---------5-5------------------------------------|



Chorus

Lead guitar (It's tremolo picking or alternative picking part with delay effect)
*Notice that rhythm guitar plays tremolo picking also 
 A section
|----10--------------------------------------------10-----------------------|
|-8------10--11--10-----------------------------8------10--11--10-----------|
|--------------------10--12----------------------------------------10--12---| X2
|----------------------------10--12-----------------------------------------|
|------------------------------------13--12--8------------------------------|
|---------------------------------------------------------------------------|
Rhythm guitar
Strum and play single notes using alternative picking
|------------------------------------|
|------------------------------------|
|-------------------------5--7-------| X2
|-5--8--3--5--5--8--7----------------|
|-5--8--3--5-----------8-------------|
|-5--8--3--5-------------------------|

Lead guitar
 B section
|---------12-| play B section 4 times after play A section twice 
|-10--11-----| 
|------------| X4
|------------|
|------------|
|------------|
Rhythm guitar
Strum
|----| When lead guitar's playing B section 
|----| Rhythm guitar plays this chord with different sound
|----| 
|-5--|
|-5--|
|-5--|



Bridge 

Lead guitar
C section(play C section 3 times) and then play it
|------------------------| |----------------|  
|------------------------| |----------------|  
|------------------------| |----------------|               
|-12----------12--10-----| |-12----------15-| 
|-----12--13----------12-| |-----12--13-----|
|------------------------| |----------------|
after play above 
D section(play C section 3 times and then play it)
|-10----------10--8-----| |---------13----------13----------13--11--10---------|
|-----10--11---------10-| |-10--11------10--11------10--11--------------13--11-|
|-----------------------| |----------------------------------------------------|
|-----------------------| |----------------------------------------------------|
|-----------------------| |----------------------------------------------------|
|-----------------------| |----------------------------------------------------|

Rhythm guitar (strum)
|----------------------------|
|----------------------------|
|----------------------------|
|-5--7--10--12--5--7--10--12-|
|-5--7--10--12--5--7--10--12-|
|-5--7--10--12--5--7--10--12-|



the ending part

Lead guitar
|---------13----------13----------13----------13--11--10---------|
|-10--11------10--11------10--11------10--11--------------13--11-|
|----------------------------------------------------------------|
|----------------------------------------------------------------| X3
|----------------------------------------------------------------|
|----------------------------------------------------------------|
after that Following by
|-13------15-|
|-----11-----|
|------------|
|------------|
|------------|
|------------|

Rhythm guitar
<> means Palm mute
|--------------------------------------|
|--------------------------------------|
|--------------------------------------|
|-5-5----7-7--<3-3-3>--5-5----3-3-3--5-|
|-5-5----7-7--<3-3-3>--5-5----3-3-3--5-|
|-5-5----7-7--<3-3-3>--5-5----3-3-3--5-|
            

comments powered by Disqus
↑ Back to top | Saosin Tabs for Come Close. Lyrics for acoustic guitar and electric guitar. Tablatures and chords are parodies/interpretations of the original songs. You may use it for private study, scholarship, research or language learning purposes only