» » »

Come Close Tabs (ver.5)

Artists:  A B C D E F G H I J K L M N O P Q R S T U V W X Y Z # 

Come Close Tabs (ver.5)

Saosin
Rating:
0/5 (0 votes)

Hard to play? Try these video lessons and learn fast.
                (Acoustic)
This is the AOL undercover sessions live acoustic version of Come Close. The guitars are 
split in each headphone so I was able to tab the lead a rhythm. Rhythm guitar is tabbed 
under the lead in each section.


Tuning: Drop C

g1: intro
D|-------------------------------------------------------------------------|
A|-------------------------------------------------------------------------|
F|-12------15-14-10----10/-12----------------------------------------------|
C|-x-------x--x--x-----x-/-x-----------------------------------12-12-12-12-|
G|-10------13-12-8-----8-/-10---13-13-13-15-15-15-12-12-12-8-8-8-----------|
C|-------------------------------------------------------------------------|

g2:
D|--------------------------------------------------------------|
A|--------------------------------------------------------------|
F|-----------------------------------------------------7-7-7-7--|
C|--5------1----3------3/-5----5-5-5-8-8-8-7-7-7----------------|
G|--5------1----3------3/-5----------------------8-8-8----------|
C|--5------1----3------3/-5-------------------------------------|


g1: Verse
D|-------------13-------------------------10-11----11---------|
A|-11-10-------------13-------11-10-------------13------------|
F|-------10-------------------------10------------------------|
C|----------12----12----12-------------12---------------------| x4
G|------------------------------------------------------------|
C|------------------------------------------------------------|

g2: palm muted
D|-----------------------------------------|
A|-----------------------------------------|
F|-----------------------------------------|
C|--5------0------1------8---3-------------| x2
G|--5------0------1------8---3-------------|
C|--5------0------1------8---3-------------|

g1: Pre-chorus
D|--------------10-------------------------------------------------------|
A|--11p10----13---------11-11-11-10-10-10--------------------------------|
F|--------10--------x2--------------------10-10-10-12-12-12--------------|
C|----------------------------------------------------------10-10-10-10--|
G|-----------------------------------------------------------------------|
C|-----------------------------------------------------------------------|

D|--------------10--------------------------------13-13-13-13-13-13-13---|
A|--11p10----13--------11-11-11-10-10-10---------------------------------|
F|--------10--------x2-------------------10-10-10------------------------|
C|-----------------------------------------------------------------------|
G|-----------------------------------------------------------------------|
C|-----------------------------------------------------------------------|

g2:
D|----------------------------------------------------------------|
A|----------------------------------------------------------------|
F|----------------------------------------------------------------|
C|--1-1-1-1-xx-1-1-1-1-xx-1-1-xx--5-5-5-5-xx-5-5-5-xx-5/8---------| x2
G|--1-1-1-1-xx-1-1-1-1-xx-1-1-xx--5-5-5-5-xx-5-5-5-xx-5/8---------|
C|--1-1-1-1-xx-1-1-1-1-xx-1-1-xx--5-5-5-5-xx-5-5-5-xx-5/8---------|

g1: Chorus x4
D|------101010-----------------------------------------------------------|
A|--888--------1010-111111--------88-------------------------------------|
F|-------------------------101010----------------------------------------|
C|-----------------------------------101010-121212-----------------------|
G|-------------------------------------------------131313----------------|
C|--------------------------------------------------------1212-13-12-888-|

g2:
D|--------------------------|
A|--------------------------|
F|--------------------------|
C|--5-----8--3----3/5-------| x4
G|--5-----8--3----3/5-------|
C|--5-----8--3----3/5-------|

g1: break
D|--------13------------11-10-8--------|
A|--11-12----x3---11-12---------11-10--|
F|-------------------------------------|
C|-------------------------------------|
G|-------------------------------------|
C|-------------------------------------|

g2:
D|--------------------|
A|--------------------|
F|--------------------|
C|-----0---0---0------|
G|-----0---0---0------|
C|-----0---0---0------|


Repeat Intro
Repeat Verse
Repeat Pre-chorus
Repeat Chorus
Repeat Break

g1: End of 2nd break
D|--------13-------13-------13-------13-------13------|
A|--11-12----11-12----11-12----11-12----11-12---------|
F|----------------------------------------------------|
C|----------------------------------------------------|
G|----------------------------------------------------|
C|----------------------------------------------------|

g1: bridge, second time play harmony in brackets.
D|----------------------------------------------|
A|-(15-15-15-101010-1111-15-15-15-13-13-13-1111)|
F|----------------------------------------------|
C|--12-12-12-7-7-7-8-8---12-12-12-10-10-10-8-8--| x3
G|----------------------------------------------|
C|----------------------------------------------|
                       1st time               2nd time
D|------------------|--------------------|--13-11-10-11-10-----------|
A|------------------|--------------------|-----------------13-11-10--|
F|------10-8--10-8--|--10---8---7--------|---------------------------| x2
C|--7-8-------------|-----7---7---7-10---|---------------------------|
G|------------------|--------------------|---------------------------|
C|------------------|--------------------|---------------------------|

g2:
D|------------------------------|
A|------------------------------|
F|------------------------------|
C|--5----8----10----13--15------| x2
G|--5----8----10----13--15------|
C|--5----8----10----13--15------|

Repeat chorus

g1: outro
D|--------13----------10----------|    |-------13-------13--13/15--|
A|--10-11---x4--10-11----13-------|    |-10-11----10-12------------|
F|--------------------------------|    |---------------------------|
C|--------------------------------| x3 |---------------------------|
G|--------------------------------|    |---------------------------|
C|--------------------------------|    |---------------------------|

g2:
D|----------------------------------------|
A|----------------------------------------|
F|----------------------------------------|
C|--5----8---3---------5----3----1--------|
G|--5----8---3---------5----3----1--------|
C|--5----8---3---------5----3----1--------|
            
Hard to play? Try these video lessons and learn fast. | Correct




comments powered by Disqus
↑ Back to top | Tablatures and chords are parodies/interpretations of the original songs. You may use it for private study, scholarship, research or language learning purposes only