>
 >
Come Close 2

Come Close 2 Guitar Tabs

Saosin - Come Close 2 chords, tabs, tablatures, lyrics

Guitar lessons | Add/correct | Request | Top 50 tabs Artists:  A B C D E F G H I J K L M N O P Q R S T U V W X Y Z 0-9

Come Close 2 Guitar Tabs – Saosin

CD, Sheet music, Poster

Do you like Come Close 2? Share with your friends now
ChordsTabsTabs v2Tabs v3Ukulele
-------------------------------------------------------------------------------
                             Saosin- Come Close
-------------------------------------------------------------------------------

*NOTE* I did a rough version of this tab a few months ago but now that i look at it... 
crap LOL! But since then, I've been able to figure out exactly what I was doing wrong. 
also added the Lead Guitar to the mix which im like 95% sure of.  Enjoy! ^.^


Tuning: DROP C (C G C F A D)

RHYTHM:

|INTRO|:

D|---------------------------------------------------------------------------|
A|---------------------------------------------------------------------------|
F|---------------------------------------------------------------------------|
C|---5-------1---3---------5------3-----1------------------------------------|
G|---5-------1---3---------5------3-----1------------------------------------|
C|---5-------1---3---------5------3-----1------------------------------------|
   (x15)   (x6)(x6)       (15)   (4)

|VERSE 1| (No Guitar)

Remind yourself
That they are the ones who will hold you still.
My thoughts exploding in thousands of pieces (thousands of pieces)
It looks so beautiful when
I know its not love Cuz!


|PRE CHORUS|

I've been trying! (As we are waiting)
I've been trying
To let you know! So

D|---------------------------------------------------------------------------|
A|---------------------------------------------------------------------------|
F|---------------------------------------------------------------------------|
C|--13\-1--------5-5-5--8--5-5-5-8-7---1---5-5-5-8-5-5-5-8-10----------------|
G|--13\-1------------------------------1-------------------------------------|
C|--13\-1------------------------------1-------------------------------------|
       (x9)    (PM All 5's)           (x9)


|CHORUS|

COME CLOSE
This is who we are
COME ON
You can show yourself! So
COME CLOSE
This is who we are
COME ON
You can be yourself! Again!


D|---------------------------------------------------------------------------|
A|---------------------------------------------------------------------------|
F|------------------------------------------------7--------------------------|
C|----5----8----3----5--------8-8-8-7-7-7-7---------------1------------------|
G|----5----8----3----5----------------------8-8-8---------1------------------|
C|----5----8----3----5------------------------------------1------------------|

    (x10)(x10)     (x10)                                (x12)

(Intro Again)

D|---------------------------------------------------------------------------|
A|---------------------------------------------------------------------------|
F|---------------------------------------------------------------------------|
C|---5-------1---3---------5------3-----1------------------------------------|
G|---5-------1---3---------5------3-----1------------------------------------|
C|---5-------1---3---------5------3-----1------------------------------------|
   (x15)   (x6)(x6)       (15)   (4)

|VERSE TWO| (No Guitar)

When you notice yourself
As something more than just
A reflection
You'll see (You'll see)
It's not me (It's not me)
I  guess im tryin to say
I know its not love but...

|PRE CHORUS|

I've been trying! (As we are waiting)
I've been trying
To let you know! So


D|---------------------------------------------------------------------------|
A|---------------------------------------------------------------------------|
F|---------------------------------------------------------------------------|
C|--13\-1--------5-5-5--8--5-5-5-8-7---1---5-5-5-8-5-5-5-8-10----------------|
G|--13\-1------------------------------1-------------------------------------|
C|--13\-1------------------------------1-------------------------------------|
       (x9)    (PM All 5's)           (x9)

|CHORUS|

COME CLOSE
This is who we are
COME ON
You can show yourself! So
COME CLOSE
This is who we are
COME ON
You can be yourself! Again!


D|---------------------------------------------------------------------------|
A|---------------------------------------------------------------------------|
F|------------------------------------------------7--------------------------|
C|----5----8----3----5--------8-8-8-7-7-7-7---------------1------------------|
G|----5----8----3----5----------------------8-8-8---------1------------------|
C|----5----8----3----5------------------------------------1------------------|

    (x10)(x10)     (x10)                                (x12)

|BRIDGE|
Ohh Ohhhh
Ohh Ohhhh
Ohh Ohhhh
Ohhh...


D|---------------------------------------------------------------------------|
A|---------------------------------------------------------------------------|
F|---------------------------------------------------------------------------|
C|---5---8---10---13---15----------------------------------------------------|
G|---5---8---10---13---15----------------------------------------------------|
C|---5---8---10---13---15----------------------------------------------------|
  (x12)(x12)(x12)(x6) (x6)

NOW!
YOU'VE FOUND LOVE
IT'S SHINING THROUGH!

D|---------------------------------------------------------------------------|
A|---------------------------------------------------------------------------|
F|---------------------------------------------------------------------------|
C|---5---8---10---13---15----------------------------------------------------|
G|---5---8---10---13---15----------------------------------------------------|
C|---5---8---10---13---15----------------------------------------------------|
  (x12)(x12)(x12)(x6) (x6)


|CHORUS|

COME CLOSE
This is who we are
COME ON
You can show yourself! So
COME CLOSE
This is who we are
COME ON
You can be yourself! Again!


D|---------------------------------------------------------------------------|
A|---------------------------------------------------------------------------|
F|------------------------------------------------7--------------------------|
C|----5----8----3----5--------8-8-8-7-7-7-7---------------1------------------|
G|----5----8----3----5----------------------8-8-8---------1------------------|
C|----5----8----3----5------------------------------------1------------------|

    (x10)(x10)     (x10)                                (x12)


|OUTRO|

COME CLOSE
And I will carry on.
COME CLOSE
In my arms...

D|---------------------------------------------------------------------------|
A|---------------------------------------------------------------------------|
F|---------------------------------------------------------------------------|
C|---5---8---3-----5---8---3------------1------------------------------------|
G|---5---8---3-----5---8---3------------1------------------------------------|
C|---5---8---3-----5---8---3------------1------------------------------------|
           (x3)           (x3)

_____________________________________________________________________________

LEAD:

|INTRO|

D|---------------------------------------------------------------------------|
A|-----------------------------------------------------15--------------------|
F|---12----15----14----10------12----15----17----14-----X--------------------|
C|----X-----X-----X-----X-------X-----X-----X-----X----12--------------------|
G|---10----13----12----8-------10----13----15----12--------------------------|
C|---------------------------------------------------------------------------|

   (x12)  (x3)  (x3)  (x8)    (12)  (x2)  (x2)


|VERSE|

D|---------------------------------------------------------------------------|
A|---11--10----------18-13-11-10----------15-16-13-15------------------------|
F|----------10-------------------10------------------------------------------|
C|-------------12*------------------12*--------------------------------------|
G|---------------------------------------------------------------------------|
C|---------------------------------------------------------------------------|
                             REPEAT 4X


|PRE CHORUS| (Option really... its played in the Acoustic and Live Versions of it but 
on the original track... it sounds good though so i reccoment it... its how i play it.)

D|---------------------------------------------------------------------------|
A|----11p10h11p10-----11p10h11p10-----11-11-11-10-10-10----------------------|
F|------------------------------------------------------10-10-10-12-12-12----|
C|----------------12--------------12------------------------------------10---|
G|---------------------------------------------------------------------------|
C|---------------------------------------------------------------------------|

|CHORUS|

D|10-10-10-------------------------------------------------------------------|
A|-------10-10-10-11-11-11---------------------------------------------------|
F|-----------------------10-10-10-12-12-12-----------------------------------|
C|---------------------------------------10-10-10-12-12-12-8-8-8-10-10-10-7--|
G|---------------------------------------------------------------------------|
C|---------------------------------------------------------------------------|

D|10-10-10-------------------------------------------------------------------|
A|-------10-10-10-11-11-11---------------------------------------------------|
F|------------------------10-10-10-12----------------------7-----------------|
C|-------------------------------------8-8-8-7-7-7-7-------------------------|
G|--------------------------------------------------8-8-8--------------------|
C|---------------------------------------------------------------------------|

                             REPEAT 2X and then play:


D|-------13----13----13----13----13------------------------------------------|
A|-----11----11----11----11----11--------------------------------------------|
F|---14----14----14----14----14----------------------------------------------|
C|---------------------------------------------------------------------------|
G|---------------------------------------------------------------------------|
C|---------------------------------------------------------------------------|

(Intro again)

D|---------------------------------------------------------------------------|
A|-----------------------------------------------------15--------------------|
F|---12----15----14----10------12----15----17----14-----X--------------------|
C|----X-----X-----X-----X-------X-----X-----X-----X----12--------------------|
G|---10----13----12----8-------10----13----15----12--------------------------|
C|---------------------------------------------------------------------------|

   (x12)  (x3)  (x3)  (x8)    (12)  (x2)  (x2)


|VERSE|

D|---------------------------------------------------------------------------|
A|---11--10----------18-13-11-10----------15-16-13-15------------------------|
F|----------10-------------------10------------------------------------------|
C|-------------12*------------------12*--------------------------------------|
G|---------------------------------------------------------------------------|
C|---------------------------------------------------------------------------|
                             REPEAT 4X

|PRE CHORUS|

D|---------------------------------------------------------------------------|
A|----11p10h11p10-----11p10h11p10-----11-11-11-10-10-10----------------------|
F|------------------------------------------------------10-10-10-12-12-12----|
C|----------------12--------------12------------------------------------10---|
G|---------------------------------------------------------------------------|
C|---------------------------------------------------------------------------|

|CHORUS|

D|10-10-10-------------------------------------------------------------------|
A|-------10-10-10-11-11-11---------------------------------------------------|
F|-----------------------10-10-10-12-12-12-----------------------------------|
C|---------------------------------------10-10-10-12-12-12-8-8-8-10-10-10-7--|
G|---------------------------------------------------------------------------|
C|---------------------------------------------------------------------------|

D|10-10-10-------------------------------------------------------------------|
A|-------10-10-10-11-11-11---------------------------------------------------|
F|------------------------10-10-10-12----------------------7-----------------|
C|-------------------------------------8-8-8-7-7-7-7-------------------------|
G|--------------------------------------------------8-8-8--------------------|
C|---------------------------------------------------------------------------|

                             REPEAT 2X and then play:


D|-------13----13----13----13----13------------------------------------------|
A|-----11----11----11----11----11--------------------------------------------|
F|---14----14----14----14----14----------------------------------------------|
C|---------------------------------------------------------------------------|
G|---------------------------------------------------------------------------|
C|---------------------------------------------------------------------------|

|BRIDGE|- Play when Cove says "NOW YOU'VE FOUND LOVE"

D|---------------------------------------------------------------------------|
A|--15-15-15--10-10-10--11-11-11--15-15-15--13-13-13--11---------------------|
F|---------------------------------------------------------------------------|
C|---------------------------------------------------------------------------|
G|---------------------------------------------------------------------------|
C|---------------------------------------------------------------------------|
                                REPEAT 3X then-

D|-------13----13----13----13----13------------------------------------------|
A|-----11----11----11----11----11--------------------------------------------|
F|---14----14----14----14----14----------------------------------------------|
C|---------------------------------------------------------------------------|
G|---------------------------------------------------------------------------|
C|---------------------------------------------------------------------------|

|CHORUS|

D|10-10-10-------------------------------------------------------------------|
A|-------10-10-10-11-11-11---------------------------------------------------|
F|-----------------------10-10-10-12-12-12-----------------------------------|
C|---------------------------------------10-10-10-12-12-12-8-8-8-10-10-10-7--|
G|---------------------------------------------------------------------------|
C|---------------------------------------------------------------------------|

D|10-10-10-------------------------------------------------------------------|
A|-------10-10-10-11-11-11---------------------------------------------------|
F|------------------------10-10-10-12----------------------7-----------------|
C|-------------------------------------8-8-8-7-7-7-7-------------------------|
G|--------------------------------------------------8-8-8--------------------|
C|---------------------------------------------------------------------------|

                             REPEAT 2X and then play:

|OUTRO|

D|-------13----13----13----13------------------------------------------------|
A|-----11----11----11----11----11--15--13------------------------------------|
F|---14----14----14----14----14----------------------------------------------|
C|---------------------------------------------------------------------------|
G|---------------------------------------------------------------------------|
C|---------------------------------------------------------------------------|

                            (X2)


D|------13-----13--15--------------------------------------------------------|
A|----11-----11--------------------------------------------------------------|
F|--14-----14----------------------------------------------------------------|
C|---------------------------------------------------------------------------|
G|---------------------------------------------------------------------------|
C|---------------------------------------------------------------------------|

                                 *END*



| /  slide up
| \  slide down
| h  hammer-on
| p  pull-off
| ~  vibrato
| +  harmonic
| x  Mute note
===============================================================================





Comments


Popular Saosin tabs & chords
On My Own Bass Tabs
Follow And Feel 2 Chords
Morning Sorrow Chords
Plays For Pretty Baby Chords
Why Cant You See Chords
Bury Your Head 2 Tabs
I Never Wanted To 1 Tabs
Keep Secrets Tabs
Penelope 4 Tabs
Its So Simple 2 Ukulele


Song lyrics



↑ Back to top | Tablatures and chords are parodies/interpretations of the original songs. You may use it for private study, scholarship, research or language learning purposes only
© 2014 AZChords.com Contact us | Privacy policy | DMCA | Add/correct tabs | Request tabs | Top 50 tabs