» » »

Saosin, Collapse Bass tabs (ver.1)

Artists:  A B C D E F G H I J K L M N O P Q R S T U V W X Y Z # 

Collapse Bass tabs (ver.1)

Saosin Tabs
 Rating:
4/5 (6 votes)
Collapse lessons Tabs too difficult? Try these video lessons and learn fast
                Collapse Bass tab



Tuning: standard

just follow the beat of the bass drum.
although medyo nakakalito sa una, makukuha nyo rin.

intro:

G|-----------------------------------------3-3-3--------------------------|
D|----5555--------5-5-----------1-1-1-1-1---------5-5-6-6-----------------|
A|------------------------------------------------------------------------|
E|------------------------------------------------------------------------|

verse:

G|---------------------------------------------------------------|
D|----5-5-5-5-5-5-5-5-5-5-5-3-3-3-3-3-3-3-3-3-3------------------|
A|---------------------------------------------------------------|
E|---------------------------------------------------------------|
(repeat 2x)

pre chorous:

G|----1-1-1-1-1-1-3-3-3-3-3-3-5--5--5--5--5--5--5--5--5--5--5--5---------|
D|-----------------------------------------------------------------------|
A|-----------------------------------------------------------------------|
E|-----------------------------------------------------------------------|

chorous:

G|-----------------------------------------------------------------------|
D|----1-1-1-1-1-1-1-1-5-5-5-5-5-5-5-5-5----------------------------------|
A|-----------------------------------------------------------------------|
E|-----------------------------------------------------------------------|

G|-----------------------------------------------------------------------|
D|----1-1-1-1-1-1-1-1-5-5-5-5-3-3-3-3-3----------------------------------|
A|-----------------------------------------------------------------------|
E|-----------------------------------------------------------------------|

G|----1-1-1-1-1-1-1-1-3-3-3-3-3-5-5-5-5-5-5-5-5-5------------------------|
D|-----------------------------------------------------------------------|
A|-----------------------------------------------------------------------|
E|-----------------------------------------------------------------------|
(repeat verse, pre chor., chorous)

here's the comfusing part..

open your eyes....
G|-----------------------------------------------------------------------|
D|----5555----55--55--55-55-55--55--5--5---------------------------------|
A|-----------------------------------------------------------------------|
E|-----------------------------------------------------------------------|

G|-----------------------3333--33---33-----------------------------------|
D|----1111----11--1-1----------------------------------------------------|
A|-----------------------------------------------------------------------|
E|-----------------------------------------------------------------------|
(repeat this 2x then chorous then repeat this again as an outro)

the timing is confusing and hard to figure out.
just play the song over and over again to learn the timing
or whatever..lolz..



| /  slide up
| \  slide down
| h  hammer-on
| p  pull-off
| ~  vibrato
| +  harmonic
| x  Mute note
===============================================================================
            
Submit corrections

comments powered by Disqus
↑ Back to top | Saosin Bass for Collapse. Lyrics for acoustic guitar and electric guitar. Tablatures and chords are parodies/interpretations of the original songs. You may use it for private study, scholarship, research or language learning purposes only