>
 >
Collapse Intro

Collapse Intro Guitar Tabs

Saosin - Collapse Intro chords, tabs, tablatures, lyrics

Guitar lessons | Add/correct | Request | Top 50 tabs Artists:  A B C D E F G H I J K L M N O P Q R S T U V W X Y Z 0-9

Collapse Intro Guitar Tabs – Saosin

CD, Sheet music, Poster

Do you like Collapse Intro? Share with your friends now
Tabs
-------------------------------------------------------------------------------
                                    COLLAPSE - Saosin
-------------------------------------------------------------------------------


Tuning:Dropped C

D|---------------------------------------------|
A|---------------------------------------------|
F|---------------------------------------------|
C|-----9--------------9------------9-----------| x2
G|---7---10-7-9-----7---10-7-9---7---7---------|
C|-10------------10------------10--------------|

D|-----------------------------------------------------------|
A|-----------------------------------------------------------|
F|-----------------------------------------------------------|
C|----------5---2-4------------------------2---2h4---5p4--------|
G|-0-5-7-0----0-----0-5-7-0-0-5-7-0-0-0---0-----0------0-0---|
C|-----------------------------------------------------------|

D|-----------------------------------------------------------|
A|-----------------------------------------------------------|
F|-------------11------------------------------16---14-------|
C|--------12-9-------------------12-9---14-----17---16-------|
G|-9-9-10-----------9---10-----------------------------------|
C|----------------0---0----0-0-0------0----0-0----0----------|
                  x   x    x x x      x    x x    x
 
D|------------------------------------------|
A|------------------------------------------|
F|------------------------------16----------|
C|----------------12-9---14-----17----------|
G|---9---10---------------------------------|
C|-0---0----0-0-0------0----0-0----0--------|
   x   x    x x x      x    x x    x 
 
D|-------------------------------------------------------------------|
A|-------------------------------------------------------------------|
F|-------------------------------------------------------------------|
C|----------12s14----------12s14------------12s14---------12s14------|
G|---9h10-----------9--10----------9---10-----------9-10-------------|
C|-0------0-------0---0---0------0---0----0-------0--0--0-------0----|
   x      x       x   x   x      x   x    x       x  x  x       x
D|-----------------------------------------------------------|
A|-----------------------------------------------------------|
F|-------------11------------------------------16---14-------|
C|--------12-9-------------------12-9---14-----17---16-------|
G|---9-10-----------9---10-----------------------------------|
C|----------------0---0----0-0-0------0----0-0----0----------|
                  x   x    x x x      x    x x    x

D|------------------------------------------|
A|------------------------------------------|
F|------------------------------16----------|
C|----------------12-9---14-----17----------|
G|---9---10---------------------------------|
C|-0---0----0-0-0------0----0-0----0--------|
   x   x    x x x      x    x x    x

D|-------------------------------------------------------------------|
A|-------------------------------------------------------------------|
F|-------------------------------------------------------------------|
C|----------12s14----------12s14------------12s14---------12s14------|
G|---9h10-----------9--10----------9---10-----------9-10-------------|
C|-0------0-------0---0---0------0---0----0-------0--0--0-------0----|
   x      x       x   x   x      x   x    x       x  x  x       x

D|-----------------------------------------------------------|
A|-----------------------------------------------------------|
F|-------------11------------------------------16---14-------|
C|--------12-9-------------------12-9---14-----17---16-------|
G|---9-10-----------9---10-----------------------------------|
C|----------------0---0----0-0-0------0----0-0----0----------|
                  x   x    x x x      x    x x    x

D|------------------------------------------|
A|------------------------------------------|
F|------------------------------16----------|
C|----------------12-9---14-----17----------|
G|---9---10---------------------------------|
C|-0---0----0-0-0------0----0-0----0--------|
   x   x    x x x      x    x x    x

D|---------------------------------------------|
A|---------------------------------------------|
F|---------------------------------------------|
C|-----9--------------9------------9-----------| x2
G|---7---10-7-9-----7---10-7-9---7---7---------|
C|-10------------10------------10--------------|





Comments


Popular Saosin tabs & chords
Collapse 2 Bass Tabs
Sleepers Bass Tabs
Voices 3 Bass Tabs
3rd Measurement In C Chords
Youre Not Alone 7 Chords
Bury Your Head (Acoustic) Tabs
Bury Your Head 1 Tabs
I Can Tell 2 Tabs
I Wanna Hear Another Fast Song Tabs
Show Me Yo Bootyhole Tabs


Song lyrics



↑ Back to top | Tablatures and chords are parodies/interpretations of the original songs. You may use it for private study, scholarship, research or language learning purposes only
© 2014 AZChords.com Contact us | Privacy policy | DMCA | Add/correct tabs | Request tabs | Top 50 tabs