» » »

Saosin, Bury Your Head Bass tabs (ver.2)

Artists:  A B C D E F G H I J K L M N O P Q R S T U V W X Y Z # 

Bury Your Head Bass tabs (ver.2)

Saosin Tabs
 Rating:
4/5 (4 votes)
Bury Your Head lessons Tabs too difficult? Try these video lessons and learn fast
1
                Intro
g ----------------------------------------------------------------------------|
d ----------------------------------------------------------------------------|
a ----------------------------------------------------------------------------|
d 5555555555555555-111111111111111-3-5555555555555555-333333333-1111111-------|

Verse
g -----------------------------------------------------------------------------|
d -----------------------------------------------------------------------------|   X2
a 5-7-9-9-9-9-444-4-4-4-4-7777-7----------------777-7-7-7-55-5-5-5-5-7-9-------|
d --------------------------------8-8-8-8-8-8-8-8------------------------------|

Pre-Chorus
g ------------------------------------------------------------------------|
d ------------------------------------------------------------------------|
a ------------------------------------4444444444444444--------------------|
d 1111111111111111-3333333333333333-----------------55555555-33333333-----|

Chorus
g ------------------------------------------------------------------------------|
d ------------------------------------------------------------------------------|   X2
a ------------------------------------------------------------------------------|
d 5555555555555555-1111111111111111-5555555555555555-333333333-1111111----------|

Verse
g ----------------------------------------------------------------------|
d ----------------------------------------------------------------------|
a -----------------------11-11-11-11-11-11-11-11-7-7-7-7-7-5-5-5-5-7----|
d 5--5--5--5--0--0--0--0------------------------------------------------|

g --------------------------------------------------------------|
d -------------------------9-9-9-9-9-9-9-9----------------------|
a -----------------------7-7-7-7-7-7-7-7-7-7-7-7-7-7-5-5-5-5----|
d 5--5--5--5--0--0--0--0----------------------------------------|

Pre-chorus

Chorus X2

Pre- Bridge
g ------------------------------|
d ------------------------------|
a 999-9-9-9-9\----999-9-9-9-9\--|
d ------------------------------|

Bridge
g ----------------------------------------------------------------------------|
d ----------------------------------------------------------------------------|   X3
a ------------------4444444444444444------------------------------------------|
d 5555555555555555------------------8888888888888888-333333333-1111111--------|

Chorus  X2

Outro
g --------------------------------------------|
d --------------------------------------------|
a -----------------------4444-----4p0---------|
d 1111-13-13-13-13-1111-----1111----5~~~~~----|

Yea. it seems as if there could be differernt tunings for this song, Live, Chris plays 
droppped D, but the recorded versions soound as if it dropped D flat but just for the 2nd verse.
            
Submit corrections

comments powered by Disqus
↑ Back to top | Saosin Bass for Bury Your Head. Lyrics for acoustic guitar and electric guitar. 1 Tablatures and chords are parodies/interpretations of the original songs. You may use it for private study, scholarship, research or language learning purposes only