» » »

Saosin, Bury Your Head Tabs (ver.1)

Artists:  A B C D E F G H I J K L M N O P Q R S T U V W X Y Z # 

Bury Your Head Tabs (ver.1)

Saosin Tabs
Rating:
4/5 (11 votes)
Bury Your Head lessons Tabs too difficult? Try these video lessons and learn fast
                
GENRE:  Emocore

---

Saosin are a wonderful band and.. surprisingly, nobody's even bothered to tab out
what I think is one of their best tracks. I can't wait for a full album. Anyway,
here's a tab for "Bury Your Head". It's only for one guitar, but from what I can
see, the second guitarist only plays chords and sings backing vocals anyway, so
his part can be added in from what I have 

here.

Have fun kids!

---

Intro Riff (A pedal is used to make the distant effect)

e|-------------------------|
B|----10----10----10----10-|
G|-13----13----13----13----|
D|-------------------------|
A|-------------------------|
D|-------------------------|

Chorus Riff

e|---------------------------------------------------------------|
B|---------------------------------------------------------------|
G|------------------9-9-9-9-9-9-9------------------6-6-6-6-4-2-4-|
D|-4--4-4-4-4-4-4---x-x-x-x-x-x-x-0--0-0-0-0-0-0---x-x-x-x-x-x-x-|
A|-4--4-4-4-4-4-4-7-7-7-7-7-7-7-7-0--0-0-0-0-0-0-4-4-4-4-4-2-0-2-|
D|-4--4-4-4-4-4-4-----------------0--0-0-0-0-0-0-----------------|

e|----------------------------------------------------------------|
B|----------------------------------------------------------------|
G|------------------9-9-9-9-9-9-9-------------------------6-6-6-4-|
D|-4--4-4-4-4-4-4---x-x-x-x-x-x-x-2--2-2-2-2-2-2----------x-x-x-x-|
A|-4--4-4-4-4-4-4-7-7-7-7-7-7-7-7-2--2-2-2-2-2-2-0-0------4-4-4-2-|
D|-4--4-4-4-4-4-4-----------------2--2-2-2-2-2-2-0-0-0000---------|
                                                 . . ....

Verse Riff

e|-------------------------------------------------|
B|----10----10----10----10----10----10----10----10-|
G|-13----13----13----13----13----13----13----13----|
D|-------------------------------------------------|
A|-------------------------------------------------|
D|-------------------------------------------------|

e|----12----------12----------12----------12-------|
B|----------10----------10----------10----------10-|
G|-13----13----13----13----13----13----13----13----|
D|-------------------------------------------------|
A|-------------------------------------------------|
D|-------------------------------------------------|

e|-------------------------------------------------|
B|----10----10----10----10----10----10----10----10-|
G|-13----13----13----13----13----13----13----13----|
D|-------------------------------------------------|
A|-------------------------------------------------|
D|-------------------------------------------------|

e|-------------------------------------------------|
B|----12----12----12----12----14----14----14----14-|
G|-13----13----13----13----13----13----13----13----|
D|-------------------------------------------------|
A|-------------------------------------------------|
D|-------------------------------------------------|

Pre-Chorus Riff

e|-----------------------------9---------|
B|-10-------9-10-9--------10-----12-10-9-|
G|----9-9-9--------11-9-9----9-----------|
D|---------------------------------------|
A|---------------------------------------|
D|---------------------------------------|

Bridge Riff

e|---------------------------------|
B|---------------------------------|
G|---------------------------------|
D|-9-7-x-9-7-x-9-7-x-9-7-x-9-7-x-x-|
A|---------------------------------|
D|---------------------------------|

e|--------------------------------------|
B|--------------------------------------|
G|--------------------------------------|
D|-11-9-x-11-9-x-11-9-x-11-9-x-11-9-x-x-|
A|--------------------------------------|
D|--------------------------------------|

e|-------------------------------------------|
B|-------------------------------------------|
G|-------------------------------------------|
D|-12-11-x-12-11-x-12-11-x-12-11-x-12-11-x-x-|
A|-------------------------------------------|
D|-------------------------------------------|

e|--------------------------------------|
B|--------------------------------------|
G|--------------------------------------|
D|-11-9-x-11-9-x-11-9-x-11-9-x-11-9-x-x-|
A|--------------------------------------|
D|--------------------------------------|



Song Order:

Intro		x1
Chorus		x1
Intro		x1
Verse		x2
Pre-Chorus	x4
Chorus		x2 (After this, there's a little break)
Verse		x2
Pre-Chorus	x4
Chorus		x2 (After this, there's a little break)
Bridge		x3
Chorus		x2 (Very end, repeat last little part of chorus riff)

----------------------------------------------------------------------------
----------------------------------------------------------------------------
            

comments powered by Disqus
↑ Back to top | Saosin Tabs for Bury Your Head. Lyrics for acoustic guitar and electric guitar. Tablatures and chords are parodies/interpretations of the original songs. You may use it for private study, scholarship, research or language learning purposes only