>
 >
Through The Fire

Through The Fire Guitar Tabs

Santos Paolo - Through The Fire chords, tabs, tablatures, lyrics

Guitar lessons | Add/correct | Request | Top 50 tabs Artists:  A B C D E F G H I J K L M N O P Q R S T U V W X Y Z 0-9

Through The Fire Guitar Tabs – Santos Paolo

CD, Sheet music, Poster

Do you like Through The Fire? Share with your friends now
TabsTabs v2
Important to remember:
1.Plz dont copy this 1 coz this is my first tim to write my tab.
2. i want to dedicate this to my love one christian jane punzalan.
3. i really love this song
4. this is a perfect piece of mine.
5. play with feeling.



INTRO:
 
|-2--------|-2--------|-2--------|-2--------|
|-3---0--0-|-3---0----|-3---0----|-3---0----|
|-0--------|-0------0-|-0------0-|-0------0-|
|-0--------|----------|-0--------|----------|
|----------|-3---3--3-|----------|-3---3--3-|
|-3---3--3-|----------|-3---3--3-|----------|


 
VERSE ONE:
|-2----------------------------------------2-------------------------------|
|-3--------------3-----------------------3----------3----------------0-----|
|-0------------------------------------0---------------------------0---0---|
|------------------------------------2--------------0------------2-------2-|
|--------------------------------------------------------------3-----------|
|----------------2-----------------0-------0-------------------------------|
  I look in your eyes and I can see we've loved so dangerously

|-----------|----------------------------|-------0-------|
|-3-----3---|----------------1-----1-----|-----1---1-----|
|-----2---2-|--------------------0---0---|---2-------2---|
|---4-------|------------------2-------2-|-0-----------0-|
|-2---------|----------------0-----------|---------------|
|-----------|----------------------------|---------------|
  and your not trusting your heart to anyone

|-------2-----|------------------2-----|------------2----------2--------------|--------------|
|---------3---|-----------3--------3---|--------------0---------------------3-|--------0-----|
|-----0-----0-|---------------2------2-|----------0-----0---------------------|------0---0---|
|---0---------|-------------4----------|--------2---------------------------0-|----2-------2-|
|-------------|-----------2------------|--------------------------------------|--3-----------|
|-3-----------|------------------------|------0----------------0--------------|--------------|
        You tell me you're gonna play it smart       but we're through before we start  

|-------------|--------------|---------0-------|
|-------3-----|--------1-----|-------1---1-----|
|-----2---2---|------0---0---|-----2-------2---|
|---4-------4-|----2-------2-|---0-----------0-|
|-2-----------|--0-----------|-----------------|
|-------------|--------------|-----------------|
  I believe that we've only just begun 

 
PRE CHORUZ:
|-------3-----3---------------|-------------------------------------|
|-----3-----3-----------------|---------------0-----3---------------|
|---3-----3-------------------|-------------------2---------2-0-2-4-|
|-1---------------------------|-------------0---0-------------------|
|-----------------------------|-----------2-------------0-----------|
|-----------------------------|---------3-------------3---3---------|
          When it's this good there's no saying no 

|-------3-----|------------------------------------------|
|-3---3-------|------------------------------5-----5---5-|
|---3---------|----------------------------5-----5---5---|
|-1-----------|--------------------------5-----5---------|
|-------------|------------------------5-----------------|
|-------------|------------------------------------------|
          I want you so I'm ready to go 

 CHORUZ:
|-------------------------------|-----------------|-0-----------0---------0-|
|---------------------0-----1---|---1-----1-----1-|---1-------1-------1-----|
|-------------------0-----0-----|-0-----0-----2---|-----2---2-----------2---|
|---------------2-2-----2-----2-|-----2-----0-----|-------0-------0---------|
|---------------2-----------0---|-----------------|-------------------------|
|---------------0---------------|-----------------|-------------------------|
 Through the fire, to the limit, to the wall                for the chance to


|-------------|---------|-----------------|
|-----------3-|-------3-|-------------5-5-|
|-------0---0-|-----2---|-----------2---2-|
|-----0---0-0-|---4-----|---------4-----4-|
|---2-------2-|-2-------|-------2-------2-|
|-3---------3-|---------|-----------------|
be with you  i'll gladly risk it all

|--------------------------------------|-----------------|-0-----------0---------0-|
|---------------------0--------1-------|---1-----1-----1-|---1-------1-------1-----|
|-------------------0-----0------------|-0-----0-----2---|-----2---2-----------2---|
|---------------2-2-----2------------2-|-----2-----0-----|-------0-------0---------|
|---------------2--------------0-------|-----------------|-------------------------|
|---------------0----------------------|-----------------|-------------------------|
 Through the fire, through whatever come what may                 for the chance to

|-------2-----|------------|---------2-----|
|-------3---3-|-3--------3-|---5-------5-4-|
|-----0-----0-|-------2----|-------2-----2-|
|---0---------|----4-------|-----4-------4-|
|-------------|-2----------|---2---------2-|
|-3-------3---|------------|---------------|
loving you, I'd take it all the way...   right down to the 

|-------------|----------|
|-1-----1---1-|-1---1----|
|-----0-0---0-|---2-2----|
|---2-----2---|-0--------|
|-0-----------|----------|
|-------------|----------|
wire            even through the fire 

 INTERLUDE: (play twice)
|----*---0---------|----*-----------|	
|----*-3---3-----3-|---3*-1-----1---|
|-4-2*-0-----2-----|---0*-0---0-----|
|-0-0*-0-------0---|---2*-2-2-----0-|
|----*-------------|-3-3*-3---------|
|-3-3*-3-----------|----*-----------|


 VERSE TWO:
|----*-----------------------------|-------*----------------|
|----*----3------------------------|-------*---3------------|
|-0-2*----2------------------2-----|------0*-0-0----------0-|
|-0-0*----0------------------0-----|------2*-2-2----------0-|
|----*-----------------------------|------2*-2-2----------2-|
|-3-3*----3--------------3-------3-|----0-0*-0-0----------0-|
    I know you're afraid of what you feel      still need time to 

|----*---------------|-----------*---------------0-------|----*------------|
|---0*---------------|-----------*---------------1-------|----*------------|
|---0*-2-----------2-|----------0*-----------2-2-----2---|---4*----------4-|
|---2*-------------4-|----------2*-----------0-----0---0-|---0*----------0-|
|-3-3*-2------2----2-|--------0-0*-----------------------|----*------------|
|----*---------------|-----------*-----------------------|-3-3*----------3-|
  heal and i can help if you only let me try              You touched me and 

                                 PM
|--------------------|---2*-----1-------0-|------------*----------------------------*-------------------------|
|------------------3-|---0*---------------|---------0-0*-3-----------3--------1----1*----1------------1-------|
|------------2-------|---0*---------------|-----------0*---------------------------0*----2--------------2-----|
|--------------------|-2--*-----0---------|-----------2*---------------------------2*----0----------------0---|
|-2------------------|-2--*---------------|---------3-3*-2-----------2-----2--0----0*-------------------------|
|--------------------|-0--*-------------3-|------------*----------------------------*-------------------------|
   something in me knew    What I could have with you,   and I'm not ready to kiss that  dream goodbye  


 PRE CHORUZ:
|----*-------------------------------|--------*-------|----*-----------------|--------------5-5-5-5-|
|-8--*--------8----------------------|--------*---3-0-|----*-----------------|--------------5-5-5-5-|
|----*---------------------------7---|-------2*-2-----|-7-7*----7----------7-|--------5---5-5-5-5-5-|
|---8*---------------------------8---|-------0*-0-----|---8*---------------8-|----------5-5---------|
|-6-6*--------6----------6-------6---|--------*-------|-6-6*----6----------6-|--------5---5---------|
|----*-----------------------------0-|-----3-3*-3-3-3-|----*-----------------|----------------------|
    When it's this sweet there's no saying no             I want you so I'm ready to go 

 CHORUZ:
	   |---------|------------------|-0-0-0-0-0-0-0-0-0-0-0-|
	   |---------|----1-1-1-1-1-1-1-|-1-1-1-1-1-1-1-1-1-1-1-|
	   |---0-0-0-|----2-2-2-2-2-2-2-|-2-2-2-2-2-2-2-2-2-2-2-|
	   |-2-2-2-2-|----2-2-2-2-2-2-2-|-0-0-0-0-0-0-0-0-0-0-0-|
	   |-2-2-2-2-|----0-0-0-0-0-0-0-|-----------------------|
	   |-0-0-0-0-|------------------|-----------------------|
through the fire   to the limit, to the wall       For the chance to  

|--------------------|------------------------------------|
|-----------3---3----|------3---3---3-5-----5-----5-5-5-5-|
|-----------0---0----|-2----2-2-2-2-2-2-2-2-2-2-2-2-2-2-2-|
|-0-----------0---0--|-4------4---4---4-4-4-4-4-4-4-4-4-4-|
|--------------------|-2------2---2---2-2-2-2-2-2-2-2-2-2-|
|-3-----------3---3--|------------------------------------|
   be with you     I'd gladly risk    it all 


	   |---------|-----------------------------0-0-0-0-0-|-0-0-0-0-0-0-|
	   |---------|-----1----1---1-1--1-1-1-----1-1-1-1-1-|-1-1-1-1-1-1-|
	   |---0-0-0-|-----2----2---2-2--2-2-2-----2-2-2-2-2-|-2-2-2-2-2-2-|
	   |-2-2-2-2-|-----2----2---2-2--2-2-2-----0-0-0-0-0-|-0-0-0-0-0-0-|
	   |-2-2-2-2-|-----0----0---0-0--0-0-0---------------|-------------|
	   |-0-0-0-0-|---------------------------------------|-------------|
through the fire   through whatever come what      may         For a chance at

|--------------------------------------------------|
|----------3---3-----------3----3---3-5----------4-|
|----------0---0---2-------2-2--2-2-2------------2-|
|-0----------0---0-4---------4----4--------------4-|
|------------------2---------2----2---2----------2-|
|-3----------3---3---------------------------------|
   loving you,    I'd take it all     away...    Right down to the 
   
|---------0---|-----------|
|-1-----1---1-|-1---------|
|-----0-------|-2---------|
|---2---------|-0----0----|
|-0-----------|-----------|
|-------------|-----------|
  wire          even through the 

 ENDING:
|-2-3-2-3---2---3---2---3-|-2---3------------------|
|---3-3-3---3---3---3---3-|-3---3-5------5---------|
|---0-0-0---0---0---0---0-|-0---0-5------5---------|
|-------------------------|-------5----------------|
|-------------------------|-3-3---3------------0---|
|-3-------3---3---3---3---|------------------0---3-|
  fire                              even through the

|-2-3-2-3---2---3---2---3---|-2-------3---|
|---3-3-3---3---3---3---3---|-3-----3-3-5-|
|---0-0-0---0---0---0---0-0-|-0---0---0-5-|
|---------------------------|-----------5-|
|---------------------------|-3---------3-|
|-3-------3---3---3---3-----|-------------|
  fire                                     even through the fire...

|-2-3-2-3---2---3---2---3---|2--------3-------|
|---3-3-3---3---3---3---3---|3------3-3-5-<7>-|
|---0-0-0---0---0---0---0-0-|0---0----0-5-<7>-|
|---------------------------|-----------5-----|
|---------------------------|3----------3-----|
|-3-------3---3---3---3-----|-----------------|


|---------2-------2----|
|-------3---3-----3----|
|-----0-------0---0----|
|---0-----------0-0----|
|----------------------|
|-3---------------3----|That's pretty much it. 


Legend:

< > - means natural harmonics
 
 *  - means tap your guitar 

 PM - means palm mute (there are some more sections where PM is used
      but I didn't bother putting them, but it's easy to figure out.)

****************thats all folks hope that ull love this song of mine*********************





Comments


Popular Santos Paolo tabs & chords
A Lovely Day Chords
Drops Of Jupiter Chords
Moonlight Over Paris Chords
Power Of Two Chords
Princess Chords
Barely Breathing Tabs
Come On Home Tabs
Itsumo Tabs
Overjoyed 2 Tabs
Theres No Easy Way (Intro) Tabs


Song lyrics



↑ Back to top | Tablatures and chords are parodies/interpretations of the original songs. You may use it for private study, scholarship, research or language learning purposes only
© 2014 AZChords.com Contact us | Privacy policy | DMCA | Add/correct tabs | Request tabs | Top 50 tabs