» » »

Moonlight Over Paris Tabs (ver.1)

Artists:  A B C D E F G H I J K L M N O P Q R S T U V W X Y Z # 

Moonlight Over Paris Tabs (ver.1)

Santos Paolo
Rating:
0/5 (0 votes)

Tabs too difficult? Try these video lessons and learn fast.
                INTRO


e|-----------------------------------------------|---------------------------------------------------------------------------
B|------0--------------------------1----0--------|-------0--------------1-----0----------------------------------------------
G|------------------2---0--------------------0---|----------2--0------------------0------------------------------------------
D|--------------0-----------X---------2------0---|-----------------X-------2------0------------------------------------------
A|----------2----------------------3-------------|----2-----------------3----------------------------------------------------
E|------3----------------------------------------|--3------------------------------------------------------------------------



STANZA



e|------------0------------------------------0-------------------------------------------------------------------------------
B|----------3-----------3---------3--------3---------------------------------------------------------------------------------
G|--------2-----------0---------0--------2-----------------------------------------------------------------------------------
D|------0---------------------2--------0-------------------------------------------------------------------------------------
A|------------------2-------3------------------------------------------------------------------------------------------------
E|----------------0----------------------------------------------------------------------------------------------------------


REFRAIN


	I say I've been working late...... 	      Haven't seen the sun since 89	
e|-----------------------------------------------0----------------------------------------------2----------------------------
B|------------3----------1----------3----------3------------------------------------------------3----------------------------
G|----------3----------2----------3----------0-------*REPEAT STANZA CHORDS EXECPT THE LAST*-----2----------------------------
D|-----------------3----------------------------------------------------------------------------0----------------------------
A|------1---------------------1-----------3----------------------------------------------------------------------------------
E|---------------------------------------------------------------------------------------------------------------------------


CHORUS

	Does the moonlight....				If the London Bridge...
e|-----------------------------------------------------|------------------------------------------0/2-0----------------------
B|----------------0---------1--------1-------0---------|-----------0----------1--------1--------2-----------------------------
G|------------0-----------0--------0-----------2-0-----|-------0------------0--------0--------2-------------------------------
D|----------0-----------2--------2-----------0-------0-|-----0------------2--------2--------0---------------------------------
A|--------2--------------------3-----------2-----------|---2---------------------3--------------------------------------------
E|------3------------0-------------------3-------------|-3-------------0------------------------------------------------------

	
e|---------------------------------------------2---|-------------0---|------------------------------------------------------------
B|--------------1---------3---------1------------3-|-1---3---1-------|-1----------------------------------------------------------------
G|------------2---------0---------0----------0-----|-----------------|-----2--------------------------------------------------------
D|----------2---------0---------2----------0-------|-----------------|---2-----0---*INTRO*--------------------------------------------------
A|------0-----------2---------3----------2---------|-0---2---3-------|-0----------------------------------------------------------------
E|-------------------------------------------------|-----------------|---------------------------------------------------------


ADLIB
	
e|------------0/2-0-----------3-------------0----------2-3-2-0-----|--------0/2-0------------3-----------------------------------------------
B|----------3-------3---------3-3---------1----------3---------3---|------3-------3----------3-3-----------------------------------------
G|--------2-----------------------------0----------2---------------|----2---------------------------------------------------------
D|------0------------------0----------2----------0-----------------|--0-------------------0------------------------------------------
A|-----------------------2----------3------------------------------|--------------------2----------------------------------------
E|---------------------0-------------------------------------------|------------------0-----------------------------------------

		     oh.. oh. oha	
e|---------------0------------------------------------------------------------------------------------------------------------
B|-------------1-----1-------------3-----*CHORUS*---------------------------------------------------------------------------------------
G|----------0------------2-------2-----------------------------------------------------------------------------------------------
D|--------2------------2-------0------------------------------------------------------------------------------------------------
A|------3------------0---------------------------------------------------------------------------------------------------------
E|---------------------------------------------------------------------------------------------------------------------------


OUTRO
	Will it ever end.........	
e|-----------------------------------10-*let it ring*-----------2------------------------------------------------------------------------------
B|------3------3-3------3-1-----1/---10---------------------0-----0---------0-------------------------------------------------------------
G|-----------0--------0-------2------12-------------------0---0-----0-------0-----------------------------------------------------------
D|---------0--------0-------2--------0--------------------------------0-----0--*END OF TAB!!*-----------------------------------------------------
A|------3--------2--------0-------------------------------------------------2------------------------------------------------------
E|-----------------------------------------------------3--------------------3----------------------------------------------------




You say you've been overseas
I say over where
You say just a holiday
My Alsatian heir

*refrain*
I say I've been working late, working overtime
Haven't seen the sun since eighty-nine


*Chorus*
Does the moon light shine on Paris
After the sun goes down
If the London Bridge is falling
Will anybody hear a sound
If you follow the sunset will it ever end
Does the moonlight shine on Paris

Oh and how can you just walk away
Is it something that I said
I see only black and white
You see green and red

*refrain*
You believe in the miracles
Water into wine
I'll believe it when it makes the New York Times

*Chorus*

Does the moonlight shine on Paris
After the sun goes down
If the London Bridge is falling
Will anybody hear a sound
If you follow the sunset will it ever end
Does the moonlight shine on Paris
            
Tabs too difficult? Try these video lessons and learn fast.


comments powered by Disqus
↑ Back to top | Tablatures and chords are parodies/interpretations of the original songs. You may use it for private study, scholarship, research or language learning purposes only