» » »

Santogold, I'm A Lady Bass tabs (ver.2)

Artists:  A B C D E F G H I J K L M N O P Q R S T U V W X Y Z # 

I'm A Lady Bass tabs (ver.2)

Santogold Tabs
Rating:
0/5 (0 votes)
I'm A Lady lessons Tabs too difficult? Try these video lessons and learn fast
                YEAR:   2008
TRACK:  10
TUNING: GDAE (standard)


(0:00)
G|---------------------------------------|
D|---------------------------------------|
A|------------4-4-4----------------------|    ×8
E|----0-0-0-4-------4-0-0-0-4-5-5-5-4----|
  Now won't you run and tell your boyfriend
  Tell him don't hold his breath for me
  I've got some money I was saving
  Got some hearts that I'll be breaking
  Know someday they'll make a martyr out of me
  I know someday they'll make a martyr out of me
  She's so fine


(0:42)
G|--------------------------------------------------------------------------------|
D|--------------------------------------------------------------------------------|
A|--------------------------------------------------------------------------------|    ×2
E|----9-9-9-9-9-9-9-9----4-4-4-4-4-4-4-4----5-5-5-5-5-5-5-5----0-0-0-0-0-0-0-0----|
  And I like sometimes to wave it high
  Up where everyone can see
  I'm a lady
  Got my mind made up
  Got my mind made up
  I know what's been mad, you really don't
  Try to hold a light to me
  I'm a lady
  Got my mind made up
  Got my mind made up


(1:02)
G|---------------------------------------|
D|---------------------------------------|
A|------------4-4-4----------------------|    ×6
E|----0-0-0-4-------4-0-0-0-4-5-5-5-4----|
  I like to watch the way the wind blows
  What does it know that I don't yet
  Ooh, oh, look so pretty now
  You're just so sweet
  Let's see how far you can get
  See just how far you can get
  She's so fine


(1:33)
G|--------------------------------------------------------------------------------|
D|--------------------------------------------------------------------------------|
A|--------------------------------------------------------------------------------|    ×2
E|----9-9-9-9-9-9-9-9----4-4-4-4-4-4-4-4----5-5-5-5-5-5-5-5----0-0-0-0-0-0-0-0----|
  And I like sometimes to wave it high
  Up where everyone can see
  I'm a lady
  Got my mind made up
  Got my mind made up
  I know what's been mad, you really don't
  Try to hold a light to me
  I'm a lady
  Got my mind made up
  Got my mind made up


(1:55) These are 14s and 11s, not combinations of 1s and 4s
G|---------------------------------------------------|
D|---------------------------------------------------|
A|----14-14-14-14/11-11-11-11/14-14-14-14/7-7-7-7----|    ×4
E|---------------------------------------------------|
  Dreams are gone
  And the dreams are gone
  No one said, no
  No one said
  Make something with what's in your head


(2:15) Same as the verse, but striking the notes a little less frequently
G|---------------------------------------|
D|---------------------------------------|
A|------------4~~~~----------------------|    ×2
E|----0~~~~-4-------4-0~~~~-4-5~~~~-4----|
  And the dreams are gone
  And the dreams are gone 


(2:26)
G|--------------------------------------------------------------------------------|
D|--------------------------------------------------------------------------------|
A|--------------------------------------------------------------------------------|    ×4
E|----9-9-9-9-9-9-9-9----4-4-4-4-4-4-4-4----5-5-5-5-5-5-5-5----0-0-0-0-0-0-0-0----|
  And I like sometimes to wave it high
  Yeah, where everyone can see
  I'm a lady
  Got my mind made up
  Got my mind made up
  I know what's been mad, you really don't
  Try to hold a light to me
  I'm a lady
  Got my mind made up
  Got my mind made up
    (repeat above lyrics 2×)
  (Got my mind made up)
  (Got my mind made up)
  (Got my mind made up)
  (Got my mind made up, got my mind made up)
  (Got my mind made up)
  (Got my mind made up)
  (Got my mind made up)
  (Got my mind made up, got my mind made up)


  And I like sometimes to wave it high
  Up where everyone can see
  I'm a lady
            

comments powered by Disqus
↑ Back to top | Santogold Bass for I'm A Lady. Lyrics for acoustic guitar and electric guitar. Tablatures and chords are parodies/interpretations of the original songs. You may use it for private study, scholarship, research or language learning purposes only