» » »

Santogold, I'm A Lady Bass tabs (ver.1)

Artists:  A B C D E F G H I J K L M N O P Q R S T U V W X Y Z # 

I'm A Lady Bass tabs (ver.1)

Santogold Tabs
 Rating:
4.2/5 (5 votes)
I'm A Lady lessons Tabs too difficult? Try these video lessons and learn fast
                			I’m a Lady - Santogold
-------------------------------------------------------------------------------


Tuning: standard

Verse: Now won’t you run and tell your boyfriend
G|---------------------------------------------------------------------------|
D|---------------------------------------------------------------------------|
A|---------------------------------------------------------------------------|
E|-0-0-0-7-9-9-9-7-0-0-0-4-5-5-5-4-------------------------------------------|


Chorus: and I like some times to wave it high
G|---------------------------------------------------------------------------|
D|---------------------------------------------------------------------------|
A|-7-7-7-7-7-7-7-7----------------------------------7-7-7-7-7-7-7------------|
E|-----------------4-4-4-4-4-4-4-4—9-9-9-9-9-9-9-9---------------------------|


Bridge: And Dreams are gone (1:54)
G|---------------------------------------------------------------------------|
D|---------------------------------------------------------------------------|
A|-14-14-14\7-7-7/14-14-14\14-14-14------------------------------------------|
E|---------------------------------------------------------------------------|


(2:15) Bridge leads into verse tabs. Continue pattern until the end.
G|---------------------------------------------------------------------------|
D|---------------------------------------------------------------------------|
A|---------------------------------------------------------------------------|
E|-0-0-0-7-9-9-9-7-0-0-0-4-5-5-5-4-------------------------------------------|





| /  slide up
| \  slide down
| h  hammer-on
| p  pull-off
| ~  vibrato
| +  harmonic
| x  Mute note
===============================================================================
            
Submit corrections

comments powered by Disqus
↑ Back to top | Santogold Bass for I'm A Lady. Lyrics for acoustic guitar and electric guitar. Tablatures and chords are parodies/interpretations of the original songs. You may use it for private study, scholarship, research or language learning purposes only