>
 >
I'm A Lady

I'm A Lady Bass Tabs

Santogold - I'm A Lady chords, tabs, tablatures, lyrics

Guitar lessons | Add/correct | Request | Top 50 tabs Artists:  A B C D E F G H I J K L M N O P Q R S T U V W X Y Z 0-9

I'm A Lady Bass Tabs – Santogold

CD, Sheet music, Poster

Do you like I'm A Lady? Share with your friends now
Bass TabsBass Tabs v2Tabs
			Im a Lady - Santogold
-------------------------------------------------------------------------------


Tuning: standard

Verse: Now wont you run and tell your boyfriend
G|---------------------------------------------------------------------------|
D|---------------------------------------------------------------------------|
A|---------------------------------------------------------------------------|
E|-0-0-0-7-9-9-9-7-0-0-0-4-5-5-5-4-------------------------------------------|


Chorus: and I like some times to wave it high
G|---------------------------------------------------------------------------|
D|---------------------------------------------------------------------------|
A|-7-7-7-7-7-7-7-7----------------------------------7-7-7-7-7-7-7------------|
E|-----------------4-4-4-4-4-4-4-49-9-9-9-9-9-9-9---------------------------|


Bridge: And Dreams are gone (1:54)
G|---------------------------------------------------------------------------|
D|---------------------------------------------------------------------------|
A|-14-14-14\7-7-7/14-14-14\14-14-14------------------------------------------|
E|---------------------------------------------------------------------------|


(2:15) Bridge leads into verse tabs. Continue pattern until the end.
G|---------------------------------------------------------------------------|
D|---------------------------------------------------------------------------|
A|---------------------------------------------------------------------------|
E|-0-0-0-7-9-9-9-7-0-0-0-4-5-5-5-4-------------------------------------------|





| /  slide up
| \  slide down
| h  hammer-on
| p  pull-off
| ~  vibrato
| +  harmonic
| x  Mute note
===============================================================================





Comments


Popular Santogold tabs & chords
I'm A Lady 1 Bass Tabs
Les Artiste Bass Tabs
Les Artistes Bass Tabs
Lights Out Bass Tabs
You'll Find A Way Bass Tabs
Les Artistes Chords
I'm A Lady Tabs
Les Artistes Tabs
My Drive Thru Tabs
Say Aha Tabs


Song lyrics



↑ Back to top | Tablatures and chords are parodies/interpretations of the original songs. You may use it for private study, scholarship, research or language learning purposes only
© 2014 AZChords.com Contact us | Privacy policy | DMCA | Add/correct tabs | Request tabs | Top 50 tabs