>
 >
Song Of The Wind 1

Song Of The Wind 1 Guitar Tabs

Santana - Song Of The Wind 1 chords, tabs, tablatures, lyrics

Guitar lessons | Add/correct | Request | Top 50 tabs Artists:  A B C D E F G H I J K L M N O P Q R S T U V W X Y Z 0-9

Song Of The Wind 1 Guitar Tabs – Santana

CD, Sheet music, Poster

Do you like Song Of The Wind 1? Share with your friends now
TabsTabs v2
Song of the Wind by Santana


 Fmaj7	 	 Cmaj7		   Fmaj7	    Cmaj7
				    ~~~~	     ~~~~
|--14-14-14-14-14|14-14-15-15---15|17---15^17-15---|-------------|
|----------------|----------------|-------------17-|17--------13-|
|----------------|----------------|----------------|------/14----|
|----------------|----------------|----------------|-------------|
|----------------|----------------|----------------|-------------|
|----------------|----------------|----------------|-------------|
  fl~~~~~~~	  fl~~~~  fl~~~~~	   pb-fl	  ~~~~
|-------|-------|-------15----|-----------------|-------------------|
|-15^---|-----13|15^------15^-|----15-13-15-^15^|(15)---------------|
|-------|--/14--|-------------|-----------------|----141414----14^12|
|-------|-------|-------------|-----------------|-------------------|
|-------|-------|-------------|-----------------|-------------------|
|-------|-------|-------------|-----------------|-------------------|
  			  ~~		       1/4    fl~    fl
|-----------------------|--------------------------5-|---5----------------|
|-----------------------|-------------------------5-5|8^--8-5-------------|
|----14^12--14^12--14^12|---------------------0-7^---|-------7^7-5-7-5--7-|
|14-------14-----14-----|14-14\12-10-12--10-12-------|--------------7----7|
|-----------------------|--------------12------------|--------------------|
|-----------------------|----------------------------|--------------------|
					           fl......   ~~~~~
|--------------------|---------------------8|--10-10^````(10)-8-----|
|--------------------|----------------8-10--|-----------------------|
|-5-5----5----5---5--|-5-5---5--7^5/9-------|-----------------------|
|----7----5-7---7---7|----7-----------------|-----------------------|
|--------------------|----------------------|-----------------------|
|--------------------|----------------------|-----------------------|
	   fl	   fl		       fl       ~~~
|------------------------------|--------------------------1515-|
|--20-20--20^---20-------------|----------20------------17-----|
|-----------------19^---17-19--|-17-1919^---19-17--1917/-------|
|----------------------------19|-------------------------------|
|------------------------------|-------------------------------|
|------------------------------|-------------------------------|
     ~~~~				     ~~~~	     ~~~~  1/2
|17-15---20-20-19-19|--2020-22-22-19-19--15-19|--15-15---12-12---12-------|
|-------------------|-------------------------|--------------------15^(15)|
|-------------------|-------------------------|---------------------------|
|-------------------|-------------------------|---------------------------|
|-------------------|-------------------------|---------------------------|
|-------------------|-------------------------|---------------------------|
	fl	       fl	    full......................
|12---12------12----12------12---12|----------------12--12----------------|
|------15^(15)-------15^(15)-------|15^-15^-15^-15^-15^-15^-15^(15)1315---|
|--14-----------14------------14---|------------------------------------14|
|----------------------------------|--------------------------------------|
|----------------------------------|--------------------------------------|
|----------------------------------|--------------------------------------|
					   fl  fl		  fl  fl
|----------22-22|-22-19-19--22-22--19-19--22^-22^-|-(22)\--------22^-22^--|
|13-13\---------|---------------------------------|-----------(0)---------|
|---------------|---------------------------------|-----------------------|
|---------------|---------------------------------|-----------------------|
|---------------|---------------------------------|-----------------------|
|---------------|---------------------------------|-----------------------|
	     full       ful........................................
|-(22)\-----22^``(22)-|22^(22)-22^(22)-22^(22)-22^(22)-22^(22)-|
|---------(0)---------|----------------------------------------|
|---------------------|----------------------------------------|
|---------------------|----------------------------------------|
|---------------------|----------------------------------------|
|---------------------|----------------------------------------|
	        ~~~~~~~~
         fl  pb  pb  pb  fl  fl   fl			  ~~~~~~~
|22^(22)22^``22``22``22``22^`22``|22^-(22)\----10-12---|---------13^12-10-|
|--------------------------------|---------------------|------------------|
|--------------------------------|-------------------12|-(12)-------------|
|--------------------------------|---------------------|------------------|
|--------------------------------|---------------------|------------------|
|--------------------------------|---------------------|------------------|
  	   ~~~~~~
|12---------------13^12--10--|12---------------------------------|
|----10--(10)----------------|-----------------------------------|
|----------------------------|---12--12^14^12----12^14^12\11^12--|
|----------------------------|-----------------------------------|
|----------------------------|-----------------------------------|
|----------------------------|-----------------------------------|
					 	     fl  fl~~~~~~~~
|--15------15--15-15-15|-15-15-13-12^13^12--------------------|
|----------------------|--------------------15-13-1515^-15^---|
|----------------------|--------------------------------------|
|----------------------|--------------------------------------|
|----------------------|--------------------------------------|
|----------------------|--------------------------------------|
pb-fl pb1/2~~~
|----------------------------------|----------------8-7-10-8-8^7--|
|^15--^15----15------15-13---------|-----------------------------8|
|--------------------------12^14^12|-(12)^14^12-------------------|
|----------------------------------|------------------------------|
|----------------------------------|------------------------------|
|----------------------------------|------------------------------|
       fl~~	      fl			     fl..      full.....
|5---5------5---5------------------|0--0-0--0-0---0-0--------------|
|--5---8^-----5---8-5--------------|-------------------------------|
|--------------------7^(7)^5---5-7-|-----------------7^``(7)-5-7^--|
|----------------------------7-----|-------------------------------|
|----------------------------------|-------------------------------|
|----------------------------------|-------------------------------|
........	 fl  fl fl  fl fl
|---------------|------------------------|--------------------------------|
|---------------|------------------------|---5---5------------------------|
|-(7)---(7)-5-7-|7^--7^-7^--7^-7^(7)^5---|5^7-5^7-5^7^5-5-----------------|
|---------------|----------------------7-|-------------7--7-5-------------|
|---------------|------------------------|--------------------7-5\3---3/7-|
|---------------|------------------------|--------------------------5-----|
							fl
|----------------------------------5--5-8^5-|5--------------5----5----8-7-|
|-----------------------5--5-8^5^8--8------8|-8^5-8^5--5---5--8-5--8-5---8|
|------------5--5^7^5^7--7------------------|--------7--7^----------------|
|-5--5-7^5-7--7-----------------------------|-----------------------------|
|--7----------------------------------------|-----------------------------|
|-------------------------------------------|-----------------------------|
				  fl
|-8^7--7--8-7-8-7-8-7-8-7-8-|7----------------------------------5-7-8/10-|
|-----8---------------------|--8-5--------------------------5^8----------|
|---------------------------|-----7^(7)^5--7-5----------5^7--------------|
|---------------------------|-------------7----7^5--5^7------------------|
|---------------------------|---------------------7----------------------|
|---------------------------|--------------------------------------------|
							full(hold)..........
|(10)---------------------------17--17191719|20192022--22^``22-22-22-22-22|
|-----------17----17181718201820--20--------|-----------------------------|
|------17-19----19--------------------------|-----------------------------|
|-------------------------------------------|-----------------------------|
|-------------------------------------------|-----------------------------|
|-------------------------------------------|-----------------------------|
(hold)................................
|22-22-22--22-22-22-22-22-22-22-22-|(22)2222-2020-19-19\17-17-17\15-15-15-|
|----------------------------------|--------------------------------------|
|----------------------------------|--------------------------------------|
|----------------------------------|--------------------------------------|
|----------------------------------|--------------------------------------|
|----------------------------------|--------------------------------------|
	       ~~~		~~~~		    ~~~~~
|15---17-15|-(15)---12--------|----------------|---------------------12-13|
|----------|-----------13-----|----------------|-------------12-13-15-----|
|----------|-------------12^14|12---14^12-14^12|14-12---12-14-------------|
|----------|------------------|----------------|--------------------------|
|----------|------------------|----------------|--------------------------|
|----------|------------------|----------------|--------------------------|

|15---13--12-15-13-12--|-1212121212---12-(12)\--|---12---15--13-12^13^12--|
|--------------------15|------------15----------|------15---------------15|
|----------------------|------------------------|-14----------------------|
|----------------------|------------------------|-------------------------|
|----------------------|------------------------|-------------------------|
|----------------------|------------------------|-------------------------|
			 ~~~~~				 ~~~~~
|1212121212---12^13^12--12----|----12---15--13-12----|15/17-----20-19-|
|-----------15--------15------|-------15----------15-|----------------|
|-----------------------------|--14------------------|----------------|
|-----------------------------|----------------------|----------------|
|-----------------------------|----------------------|----------------|
|-----------------------------|----------------------|----------------|
  ~~~~~	      ~~~~	      ~~~~~~~~~~ fl~~~~
|15-------15|17----20-19--20-15-|-(15)---17--------------------------|
|-------17--|-------------------|--------20^----20-17----------------|
|-----------|-------------------|-------------------19^(19)^17-19----|
|-----------|-------------------|---------------------------------19-|
|-----------|-------------------|------------------------------------|
|-----------|-------------------|------------------------------------|

|------------------------------------|-----------------------|
|------------------------------------|-----------------------|
|17-17-12^14-12---------------(0)-14-|14-12\-----------------|
|--------------12-10-12--10/14-------|--------7^5---7^5---7^5|
|----------------------12------------|------------7-----7----|
|------------------------------------|-----------------------|
              pb      fl   ~~~~~~      fl	     fl
|-----------------5----------|---5-----------------------------|
|-------------------5-8^-(8)-|-----8-5-------------------------|
|---5---5-7^5-^7-------------|--------7^(7)-5-7---5-77^(7^5)7--|
|-7---7----------------------|------------------7-------------7|
|----------------------------|---------------------------------|
|----------------------------|---------------------------------|
           ~~~~
|----------------------|---------------------|----------------|
|------8-6-5---6----5--|---------------------|--------------8-|
|5-7^5-----------7----5|-7-4-4--------------4|-5--(5)/7-7/9---|
|----------------------|--------5-5----5---5-|----------------|
|----------------------|-------------7----7--|----------------|
|----------------------|---------------------|----------------|
           fl  fl  fl      ~~~			     ~~~  rake........... 
|---8--1010^-10^-10^(10)8|10---8-8-(8)^7-7-7-----|-7--------7---7---7---7-|
|10----------------------|--------------------8-8|--8------8---8---8---8--|
|------------------------|-----------------------|---9----9---9---9---9---|
|------------------------|-----------------------|------------------------|
|------------------------|-----------------------|------------------------|
|------------------------|-----------------------|------------------------|
	 fl	     fl  fl		     fl
|8------10^---10^8-|10^-10^------8-----10---10^(10)^8--10----|
|------------------|-----------10----10----x--------------10-|
|9-----------------|-----------------------------------------|
|------------------|-----------------------------------------|
|------------------|-----------------------------------------|
|------------------|-----------------------------------------|

|-8--8-8------------------------5--|----5--------------5------------------|
|------8^10-8------------------5-5-|8^----8^5-8^5-----5-8^5---------------|
|-------------8\7^5-7^5--5-7^------|--------------77^------77^(7)^5--7^5--|
|----------------------7-----------|-------------------------------7----7-|
|----------------------------------|--------------------------------------|
|----------------------------------|--------------------------------------|
		    ~~			         ~~~
|---------------------------------------------|--------------8-8-(8)/20-|
|--------------------------------------7------|--8---10 10--------------|
|-----------------------5-7--7^(7)^5---7---5-7/9------------------------|
|-5-----------------5--7-------------7---7----|-------------------------|
|--7\5^3---3-5^3---7--------------------------|-------------------------|
|--------5-------5/---------------------------|-------------------------|
  fl   fl  fl	      ~~				    fl   1+1/2
|-17---17--17----20--19-17^19-------19---------------------20^(22)^(23)-|
|-20^--20^-20^------------|---20-17----20^1720^1720^1720^17-------------|
|-------------------------|---------------------------------------------|
|-------------------------|---------------------------------------------|
|-------------------------|---------------------------------------------|
|-------------------------|---------------------------------------------|
     2   2    2.....   fl~~~~
|--20^-20^--20^``^(20)20^-|---20--20-19--19-19--20^19-20^19
|-------------------------|------------------------------|
|-------------------------|------------------------------|
|-------------------------|------------------------------|
|-------------------------|------------------------------|
|-------------------------|------------------------------|
				      fl.........................
19-20-19201920192019201920192019/22-22^`22`^22`^22`^22`^22`^22`^22--22-20-|
|---------------------------------------|---------------------------------|
|---------------------------------------|---------------------------------|
|---------------------------------------|---------------------------------|
|---------------------------------------|---------------------------------|
|---------------------------------------|---------------------------------|
  ~~				   ~~~	         fl..   fl   fl   fl
|22-20--2020--1919-------|19-----------------5----------------------------|
|------------------20--20|--20-17-20--(17)\--5--8-------------------------|
|--------------------19--|-----------------------7^^(7)7^(7)7^(7)7^(7)-7-5|
|------------------------|------------------------------------------------|
|------------------------|------------------------------------------------|
|------------------------|------------------------------------------------|
      ~~~~				     ~~~~
|-------------|----0-0--0-0--0-0-------|--------------|-0-00--000--00-----|
|---5-5-------|3/5---------------------|---4/5--------|-------------------|
|-7-------5-7-|--------------------7-5-|7---------5-7-|---------------7-5-|
|-------------|------------------------|--------------|-------------------|
|-------------|------------------------|--------------|-------------------|
|-------------|------------------------|--------------|-------------------|
       fl	    fl	        fl	  fl fl fl fl
|--------------------------|---------------------------|
|--5--------5-----5-----5--|--5-----5----5-------------|
|7----7^(7)--------7^(7)---|---7^(7)------7^-7^-7^-7^--|
|-------------7-----------7|----------7----------------|
|--------------------------|---------------------------|
|--------------------------|---------------------------|
 fl	       fl      fl      fl       fl
|----5--5--5------------------------|--------------------------------------|
|----5--5---8-5---5-8-5---5-8-5---5-|8-5-----------------------------------|
|7^------------7^------7^------7^---|---7^-7-5---7---5---------------------|
|-----------------------------------|----------7---7---7-5-----------------|
|-----------------------------------|----------------------7-5-3-5-3-------|
|-----------------------------------|--------------------------------5-x/--|
  ~~~~~	fl    	~~~~~~  fl	    ~~~~~~		   ~~~~~~
|-------------|-------------------|-------------|----------------------|
|20----20^-20-|-(20)--------------|-------------|----------------------|
|-------------|--------19^---17---|-------------|----------------------|
|-------------|-----------------19|17------19^17|19-17-17-17--------17-|
|-------------|-------------------|-------------|-----------------19---|
|-------------|-------------------|-------------|----------------------|
	   ~~~~~~
|----------------------|-----------------------------------------|
|----------------------|-----------------------------------------|
|----------------------|-----------------------------------------|
|19-17--17-(17)------17|-19^17--19^17--19^17--19^17--19^17--19^17|
|-----19-----------19--|-------------------19-----19-----19------|
|----------------------|-----------------------------------------|
			       fl    fl   full........................
|---------------------------------------|------------------------------|
|---------------------------------20----|------------------------------|
|-----------------------17-19-19^---19^-|-19^-19^-19^-19^-19^-19^-19^--|
|---19^17--19^17--17-19-----------------|------------------------------|
|19-----19-----19-----------------------|------------------------------|
|---------------------------------------|------------------------------|
full............    fl  fl~~~  fl
|---------------------------|---------------------------------------------|
|------------------20^-20^--|-20^(20)-17-20^17--17------------------------|
|19^-19^-19^-19^------------|-----------------19--19^1719^17--17----------|
|---------------------------|-------------------------------19--19^17-----|
|---------------------------|----------------------------------------19\17|
|---------------------------|---------------------------------------------|

|------------------------7------|-----------------------|-----------------|
|--------------------8---8------|---------8---8---------|-----------------|
|--------------------7^9-9-9\7-5|-7-5-5---7^9-7^9-9\7-5-|7-5-5-5---------5|
|---------------17--------------|-----------------------|-------------5-7-|
|15-17--15-17/19----------------|-----------------------|-----------------|
|-----17------------------------|-----------------------|-----------------|
	     ~~~~
|-----------------------------|-------------------------------8----|
|-----------------------------|-----------8-8---8-10^8---8-10---10-|
|--7-5-7/9\7-5----7-5-7/9\7-5-|-(5)-7-5/9-----9--------9-----------|
|-----------------------------|------------------------------------|
|-----------------------------|------------------------------------|
|-----------------------------|------------------------------------|
  1/2		1/2		 fl  fl		     fl	   fl
|10^(10)^8-10--10^(10)-8-8--10-10^--10^-|-8-10----8-15^-----------------|
|-------------x-------------------------|------10---------15^------15---|
|---------------------------------------|-----------------------17----14|
|---------------------------------------|-------------------------------|
|---------------------------------------|-------------------------------|
|---------------------------------------|-------------------------------|
		     ~~~    fl		      fl    fl~~~~
|------------------------------------|-----------15-----------------------|
|-13-15-16^15^13-15-13--15-15^--13---|13-(15)15^---15^-13--15-16^15^13-15-|
|---------------------------------14-|------------------------------------|
|------------------------------------|------------------------------------|
|------------------------------------|------------------------------------|
|------------------------------------|------------------------------------|

|x-15-15--13-13--12-12--10-10|-(10)8-8--7-7-----------|------------------|
|----------------------------|---------------10-10-8-8|--6--5-5----------|
|----------------------------|------------------------|----------7-7-5-7-|
|----------------------------|------------------------|------------------|
|----------------------------|------------------------|------------------|
|----------------------------|------------------------|------------------|

|0-000000--0000------|------------|0--0-00--0000-------|-------------|
|--------------------|------------|-----------------5--|-------------|
|---------------7-5-7/9-9-----5-7-|---------------7---7/9------5-5-7-|
|--------------------|------------|--------------------|-------------|
|--------------------|------------|--------------------|-------------|
|--------------------|------------|--------------------|-------------|

|-0--0-0-0--0-0----------------|0--0--0--0-0---0--5---------|
|-----------------8---6--5^6^5-|--------------------8-6-5---|
|-----------------------------7|--------------------------7-|
|------------------------------|----------------------------|
|------------------------------|----------------------------|
|------------------------------|----------------------------|
								   FADE OUT
|0-0-0-00--0-00------|-----------------|0-0-0-00-0-0------|---------|-----|
|--------------------|-----------------|------------------|---------|-----|
|---------------7-5-7/9--9-9-9---5-5-7-|-------------7-5-7/9----5--7/9----|
|--------------------|-----------------|------------------|---------|-----|
|--------------------|-----------------|------------------|---------|-----|
|--------------------|-----------------|------------------|---------|-----|





Comments


Popular Santana tabs & chords
Smooth Chords
Smooth Drum Tabs
Aqua Marine 1 Tabs
Black Magic Woman Tabs
Dirty Dancin Tabs
El Farol Tabs
Hold On 2 Tabs
I Love You Much Too Much Tabs
Victory Is Won Tabs
Black Magic Woman Ukulele


Song lyrics



↑ Back to top | Tablatures and chords are parodies/interpretations of the original songs. You may use it for private study, scholarship, research or language learning purposes only
© 2014 AZChords.com Contact us | Privacy policy | DMCA | Add/correct tabs | Request tabs | Top 50 tabs