» » »

Maria Bass tabs (ver.1)

Artists:  A B C D E F G H I J K L M N O P Q R S T U V W X Y Z # 

Maria Bass tabs (ver.1)

Santana
Rating:
0/5 (0 votes)

Hard to play? Try these video lessons and learn fast.
                G:-------------------------------
D:-------------------------------
A:-------------------------------
E:-0-8-0-8-0-8-0-8-0-8-0-8-------


G:-------------------------------
D:-------------------------------
A:-5-0--0-------0----0----0------
E:-----3---3--3----3----3--------

G:-------------------------------
D:-------------------------------
A:-3---3------3-----1-------1----
E:---8---8/11----6------6/8------   

G:-------------------------------
D:-------------------------------
A:---3----3/5---5--5--3---5\2--2-
E:-4---4------4-----------------0
            
Hard to play? Try these video lessons and learn fast. | Correct




comments powered by Disqus
↑ Back to top | Tablatures and chords are parodies/interpretations of the original songs. You may use it for private study, scholarship, research or language learning purposes only