>
 >
Aqua Marine

Aqua Marine Guitar Tabs

Santana - Aqua Marine chords, tabs, tablatures, lyrics

Guitar lessons | Add/correct | Request | Top 50 tabs Artists:  A B C D E F G H I J K L M N O P Q R S T U V W X Y Z 0-9

Aqua Marine Guitar Tabs – Santana

CD, Sheet music, Poster

Do you like Aqua Marine? Share with your friends now
TabsTabs v2

Symbols:

h=hammer-on
p=pull-off
/=slide-up
\=slide-down
~=left hand vibrato
b=bend
r=release bend

INTRO:

e|---------0--------------|---------0----0-----------|
B|-------0-----7-7----7---|-------0--------7-----7---|
G|-----7-----7------7-----|-----7-----7-------7------|
D|---5--------------------|---5----------------------|
A|-7----------------------|-7------------------------|
E|------------------------|--------------------------|
  0:00

RIFF:

e|-------12-14-15p14-----------------|-------12-14-15p14---------------------|
B|-12-15-------------15-15-12-15-12--|-12-15--------------15-15-12-15/17-12--|
G|-----------------------------------|---------------------------------------|
D|-----------------------------------|---------------------------------------|
A|-----------------------------------|---------------------------------------|
E|-----------------------------------|---------------------------------------|
  0:39

CHORDS:

  Am  Bm  B#m  Bm    Am  Bm  B#m  Bm
e|-5---7---8----7---|-5---7---8----7---|
B|-5---7---8----7---|-5---7---8----7---|
G|-5---7---8----7---|-5---7---8----7---|
D|-7---9---10---9---|-7---9---10---9---|
A|-7---9---10---9---|-7---9---10---9---|
E|-5---7---8----7---|-5---7---8----7---|
  0:56

  Em                      
e|-2-2--2-2----2---0----|-2------2---------2----0------|
B|-0-0--0-0----0---0----|---0------0-------0----0------|
G|-0-0--0-0----0---0----|-----0------0-----0----0------|
D|-2-2--2-2----2---2----|------------------2----2------|
A|-2-2--2-2----2---2----|------------------2----2------|
E|-0-0--0-0----0---0----|------------------0----0------|
  1:14                   1:24


SOLO:

e|----------------------|-----------------------|
B|----------------------|-----------------------|
G|----------------------|-----------------------|
D|------------5---------|-----------------------|
A|-5h7----5h7---5h7-----|-----------------------|
E|----------------------|-3h5/7--3/5\3--0-------|
  1:46

e|---------------|---------------------|
B|---------------|-----8---------------|
G|-9-7b9r7p4-----|-7h9---7b9r7p4-------|
D|---------------|---------------------|
A|---------------|---------------------|
E|---------------|---------------------|
  1:58

e|---------------------------------------------|
B|---------------------------------------------|
G|-7/9-9--9-7-----7----------------------------|
D|-------------9-----9-7--5-7-7--7/9\7--5h7p5--|
A|---------------------------------------------|
E|---------------------------------------------|
  2:06

e|----------------------------------10/12-12-10----12-10/12-10-----|
B|-----8---8---8---8---8---8---8-12-------------12-------------12--|
G|-7-9---9---9---9---9---9---9-------------------------------------|
D|-----------------------------------------------------------------|
A|-----------------------------------------------------------------|
E|-----------------------------------------------------------------|
  2:10

e|---------------------|
B|-10/12-12-10-8-------|
G|----------------9----|
D|---------------------|
A|---------------------|
E|---------------------|
  2:19


e|-------------------------------------------------------------------------------------|
B|-------------------------------------------------------------------------------------|
G|-7-9p7-9-9--7-9p7-9-9--7-9p7-9-9-----------------------------------------------------|
D|-------------------------------------------------------------------------------------|
A|-------------------------------------------------------------------------------------|
E|-------------------------------------------------------------------------------------|
  2:21

e|-------------------------12-14-12----------17~17~17~17~17~-|
B|---------7-8-10-12-13-15----------15p14-14-----------------|
G|-7-9p7-9---------------------------------------------------|
D|-----------------------------------------------------------|
A|-----------------------------------------------------------|
E|-----------------------------------------------------------|



e|-14--15--17/19--17--15\14---|-10/12p10-----------|
B|----------------------------|-----------12-------|
G|----------------------------|--------------------|
D|----------------------------|--------------------|
A|----------------------------|--------------------|
E|----------------------------|--------------------|
  2:30

e|-10h12-15-12--12-10/12--12-10/12--12-10/12--12-10/12-12--|
B|---------------------------------------------------------|
G|---------------------------------------------------------|
D|---------------------------------------------------------|
A|---------------------------------------------------------|
E|---------------------------------------------------------|
  2:35

e|-12-10-------------------------------------------------------|
B|-------12---15p12--10----10-12---10----10/12\10----10/12-----|
G|----------------------12------------12----------12-------12--|
D|-------------------------------------------------------------|
A|-------------------------------------------------------------|
E|-------------------------------------------------------------|
  
CHORDS DURING FLUTE SOLO:

    Bm      F#m
e|---2---|---2----|
B|---3---|---2----|
G|---4---|---2----|
D|---4---|---4----|
A|---2---|---4----|
E|---2---|---2----|
  2:41

And then:

  Am  Bm  B#m  Bm    Am  Bm  B#m  Bm
e|-5---7---8----7---|-5---7---8----7---|
B|-5---7---8----7---|-5---7---8----7---|
G|-5---7---8----7---|-5---7---8----7---|
D|-7---9---10---9---|-7---9---10---9---|
A|-7---9---10---9---|-7---9---10---9---|
E|-5---7---8----7---|-5---7---8----7---|
  3:35

  Em                      
e|-2-2--2-2----2---0----|-2------2---------2----0------|
B|-0-0--0-0----0---0----|---0------0-------0----0------|
G|-0-0--0-0----0---0----|-----0------0-----0----0------|
D|-2-2--2-2----2---2----|------------------2----2------|
A|-2-2--2-2----2---2----|------------------2----2------|
E|-0-0--0-0----0---0----|------------------0----0------|
  3:55                   4:05  

FINAL PART:

e|---------0--------------|---------0----0-----------|
B|-------0-----7-7----7---|-------0--------7-----7---|
G|-----7-----7------7-----|-----7-----7-------7------|
D|---5--------------------|---5----------------------|
A|-7----------------------|-7------------------------|
E|------------------------|--------------------------|
  4:12

e|-14h15p14-----------------|-14h15p14-------------12-----|
B|----------15-15-12-15-12--|----------15-15-12-15----12--|
G|--------------------------|-----------------------------|
D|--------------------------|-----------------------------|
A|--------------------------|-----------------------------|
E|--------------------------|-----------------------------|
  4:17

e|-------12-14-15p14-----------------|-------12-14-15p14---------------------|
B|-12-15-------------15-15-12-15-12--|-12-15--------------15-15-12-15/17-12--|
G|-----------------------------------|---------------------------------------|
D|-----------------------------------|---------------------------------------|
A|-----------------------------------|---------------------------------------|
E|-----------------------------------|---------------------------------------|
  4:34

e|-14h15p14--10h12p10-|-----------------------------------------------------------------|
B|--------------------|-12-12-10h12-12--10h12-12--10h12-12--10h12-12--10h12-12-10h12-12-|
G|--------------------|-----------------------------------------------------------------|
D|--------------------|-----------------------------------------------------------------|
A|--------------------|-----------------------------------------------------------------|
E|--------------------|-----------------------------------------------------------------|
  4:51

e|------------------------------------|-----------------------|
B|------------------------------------|-----------------------|
G|------------------------------------|-----------------------|
D|------------------------------------|-----------------------|
A|-7---5------7---5-----7---5---5-7---|--12-------------------|
E|---5---5------5---5-----5---5-------|-----------------------| . . . END
  5:01                                     5:07





Comments


Popular Santana tabs & chords
Jingo 1 Bass Tabs
Corazon Espinado Chords
I'm Winning Tabs
Let Me Inside 1 Tabs
The Game Of Love Tabs
The Game Of Love 1 Tabs
The Sensitive Kind Tabs
Waiting Tabs
Well All Right Tabs
What Does It Take Tabs


Song lyrics



↑ Back to top | Tablatures and chords are parodies/interpretations of the original songs. You may use it for private study, scholarship, research or language learning purposes only
© 2014 AZChords.com Contact us | Privacy policy | DMCA | Add/correct tabs | Request tabs | Top 50 tabs