>
 >
Betamax

Betamax Guitar Tabs

Sandwich - Betamax chords, tabs, tablatures, lyrics

Guitar lessons | Add/correct | Request | Top 50 tabs Artists:  A B C D E F G H I J K L M N O P Q R S T U V W X Y Z 0-9

Betamax Guitar Tabs – Sandwich

CD, Sheet music, Poster

Do you like Betamax? Share with your friends now
Bass TabsChordsTabsTabs v2Ukulele
For any comments and Suggestion:


                             

Tuning: Standard

Intro..


e------3----3-------3-----3-----3--|
b----5----5-------3-----3-----5----|
g--5----5-------5-----5-----5------|
D----------------------------------|
A----------------------------------|
E----------------------------------|
Then sabay with rhythm...

guitar 1
e------3----3--3-----3-----3------3---3-----|
b----5----5--------3-----3------5-----------|
g--5----5----5---5-----5-----5-----5--------|
D-------------------------------------------|
A-------------------------------------------|
E-------------------------------------------|


guitar 2
e------------------------------------------|
b------------------------------------------|
g------------------------------------------|
D--3333333--7777777--888888--5555555-------|
A--1111111--7777777--888888--3333333-------|
E--1111111--5555555--666666--3333333-------|




Chorus(0:22)

Wala pa nung myx..........
e------------------------------------------|
b------------------------------------------|
g------------------------------------------|
D--3333333--7777777--888888--5555555-------|
A--1111111--7777777--888888--3333333-------|
E--1111111--5555555--666666--3333333-------|


Sa jingle magasin........
e------------------------------------------|
b------------------------------------------|
g------------------------------------------|
D--3333333--7777777--888888--5555555-------|
A--1111111--7777777--888888--3333333-------|
E--1111111--5555555--666666--3333333-------|


Uh!....

(Drums Beat 2x)

Verse1:

Mula sa himig ni Pepe Smith
Mag blues si Wally Gonzales
Lumaki sa layaw ni Mike Hanopol
Bumalik ang kwago ni Bosyo

e----------------|
b-----6--5--6----|
g-----5--4--5----|
D----------------|
A----------------|
E----------------|


Kamusta mula sa Maria Cafra
Umistambay si Heber
sa bahay ni Gary Granada
Nagbago ang lumad ni Joey Ayala


e----------------|
b-----5--6--5----|
g-----4--5--4----|
D----------------|
A----------------|
E----------------|

Nagreklamo si Chikoy Pura
Sa balita ng Asin
Ang anak ni ka Freddie
Kinontra ni Edu Abraham

e----------------|
b-----6--5--6----|
g-----5--4--5----|
D----------------|
A----------------|
E----------------|

Dumibidoo ang Apo Hiking
Mga kababayan ni Francis M
Beh buti nga sa Hotdog
Nosibalasi Sampaguita


e----------------|
b-----5--6--5----|
g-----4--5--4----|
D----------------|
A----------------|
E----------------|


Chorus:(1:30)


Wala pa nung myx..........
e------------------------------------------|
b------------------------------------------|
g------------------------------------------|
D--3333333--7777777--888888--5555555-------|
A--1111111--7777777--888888--3333333-------|
E--1111111--5555555--666666--3333333-------|


Sa jingle magasin........
e------------------------------------------|
b------------------------------------------|
g------------------------------------------|
D--3333333--7777777--888888--5555555-------|
A--1111111--7777777--888888--3333333-------|
E--1111111--5555555--666666--3333333-------|


Ipagpatuloy ang daloy ng alon....3x

Guitar 1
e------------------------------------------|
b------------------------------------------|
g------------------------------------------|
D--3333333--7777777--888888--5555555-------|
A--1111111--7777777--888888--3333333-------|
E--1111111--5555555--666666--3333333-------|


Guitar 2
e------------------------------------------|
b------------------------------------------|
g--101010--141414--151515--121212----------|
D--xxxxxx--xxxxxx--xxxxxx--xxxxxx----------|
A--888888--121212--131313--101010----------|
E------------------------------------------|  3x


Ipagpatuloy......... Padayon...........
Guitar 1
e------------------------------------------|
b------------------------------------------|
g------------------------------------------|
D--3333333--7777777--88888888888---------|
A--1111111--7777777--88888888888---------|
E--1111111--5555555--66666666666---------|



Guitar 2
e-----------------------------10---10---10---10---10------|
b-------------------------------8----8----8----8----8-----|
g--101010--141414--151515--------10---10---10---10---10---|
D--xxxxxx--xxxxxx--xxxxxx---------------------------------|
A--888888--121212--131313---------------------------------|
E---------------------------------------------------------|

Verse2 (2:17)


Baby baby Rico J
Musikahan ni Ryan Ryan
Umiskul bukol kay Tito Vic and Joey
Sumayaw sa VST

e----------------|
b-----6--5--6----|
g-----5--4--5----|
D----------------|
A----------------|
E----------------|

Humataw kay Gary V
Bumilad sa ballad ni Martin Nievera
Request sa dj ni Sharon Cuneta
Nangako sayo si Rey Valera

e----------------|
b-----5--6--5----|
g-----4--5--4----|
D----------------|
A----------------|
E----------------|

Salamat sa the Dawn
Ang tatay ko, si Jack Sikat
Disyembre ni Binky Lampano
Nangarap ang Identity crisis

e----------------|
b-----6--5--6----|
g-----5--4--5----|
D----------------|
A----------------|
E----------------|

Wag kalimutan ang Wuds
Namatay sa ingay ng Dead Ends
Never meant to be Betrayed
Sa XB, NU at Club Dredd

e----------------|
b-----5--6--5----|
g-----4--5--4----|
D----------------|
A----------------|
E----------------|


Chorus(2:54)
Wala pa nung myx..........
e------------------------------------------|
b------------------------------------------|
g------------------------------------------|
D--3333333--7777777--888888--5555555-------|
A--1111111--7777777--888888--3333333-------|
E--1111111--5555555--666666--3333333-------|


Sa jingle magasin........
e------------------------------------------|
b------------------------------------------|
g------------------------------------------|
D--3333333--7777777--888888--5555555-------|
A--1111111--7777777--888888--3333333-------|
E--1111111--5555555--666666--3333333-------|


Ipagpatuloy ang daloy ng alon....3x

Guitar 1
e------------------------------------------|
b------------------------------------------|
g------------------------------------------|
D--3333333--7777777--888888--5555555-------|
A--1111111--7777777--888888--3333333-------|
E--1111111--5555555--666666--3333333-------|


Guitar 2
e------------------------------------------|
b------------------------------------------|
g--101010--141414--151515--121212----------|
D--xxxxxx--xxxxxx--xxxxxx--xxxxxx----------|
A--888888--121212--131313--101010----------|
E------------------------------------------|  3x


Ipagpatuloy.........                         Padayon...........
Guitar 1
e------------------------------------------|
b------------------------------------------|
g------------------------------------------|
D--3333333--7777777--88888--555555-------|
A--1111111--7777777--88888--555555-------|
E--1111111--5555555--66666--333333-------|



Guitar 2
e-----------------------------------10---10---10---10---10------|
b-------------------------------------8----8----8----8----8-----|
g--101010--141414--151515--121212------10---10---10---10---10---|
D--xxxxxx--xxxxxx--xxxxxx--xxxxxx-------------------------------|
A--888888--121212--131313--101010-------------------------------|
E---------------------------------------------------------------|



Padayon....4x

Guitar 1
e------------------------------------------|
b------------------------------------------|
g------------------------------------------|
D--3333333--7777777--888888--5555555-------|
A--1111111--7777777--888888--3333333-------|
E--1111111--5555555--666666--3333333-------|


Guitar 2
e------------------------------------------|
b------------------------------------------|
g--101010--141414--151515--121212----------|
D--xxxxxx--xxxxxx--xxxxxx--xxxxxx----------|
A--888888--121212--131313--101010----------|
E------------------------------------------|

Guitar 2
e-----------------------------------10---10---10---10---10------|
b-------------------------------------8----8----8----8----8-----|
g--101010--141414--151515--121212------10---10---10---10---10---|
D--xxxxxx--xxxxxx--xxxxxx--xxxxxx-------------------------------|
A--888888--121212--131313--101010-------------------------------|
E---------------------------------------------------------------|



Both Guitars 
e----|
b----|
g----|       END!
D--3-|
A--1-|
E--1-|





Comments


Popular Sandwich tabs & chords
Two Trick Pony Live Bass Tabs
Fluxxe Chords
Masilungan Chords
Procastinator Chords
Putik Chords
Homerun Tabs
Right Now Tabs
Hairpin Ukulele
Manila Ukulele
Sunburn Ukulele


Song lyrics



↑ Back to top | Tablatures and chords are parodies/interpretations of the original songs. You may use it for private study, scholarship, research or language learning purposes only
© 2014 AZChords.com Contact us | Privacy policy | DMCA | Add/correct tabs | Request tabs | Top 50 tabs