» » »

Sandwich, Betamax Bass tabs (ver.1)

Artists:  A B C D E F G H I J K L M N O P Q R S T U V W X Y Z # 

Betamax Bass tabs (ver.1)

Sandwich Tabs
 Rating:
4/5 (4 votes)
Betamax lessons Tabs too difficult? Try these video lessons and learn fast
                intro: 
|---------------------------------------------|
|---------------------------------------------|   (x2)
|---------------------------------------------|  
|------11111111-55555555-66666666-33333333----|




Wala pa nung myx wala pa nung MTV.....

|---------------------------------------------|
|---------------------------------------------|   (x2)
|---------------------------------------------|  
|------11111111-55555555-66666666-33333333----|

Sa jingle magazine....

|---------------------------------------------|
|---------------------------------------------|   
|---------------------------------------------|  
|------11111111-55555555-66666666-33333333----|

Mula sa himig ni Pepe Smith...

|---------------------------------------------|
|-----------------------------------3---------|   
|---5-3-5-----5-3-5-----5-3-5-----5---5-------|  
|---------------------------------------------|  

Kamusta mula sa Maria Cafra... 

|---------------------------------------------|
|---------------------------------------------|   
|---------------------------------------------|
|---3-5-3-----3-5-3-----3-5-3-----3-5-3-------|  
 
Nagreklamo si Chikoy Pura .....

|---------------------------------------------|
|-----------------------------------3---------|   
|---5-3-5-----5-3-5-----5-3-5-----5---5-------|  
|---------------------------------------------|  

Dumibidoo ang Apo Hiking...

|---------------------------------------------|
|---------------------------------------------|   
|---------------------------------------------|
|---3-5-3-----3-5-3-----3-5-3-----3-5-3-------|  

Wala pa nung MYX wala pa nung MTV...

|---------------------------------------------|
|---------------------------------------------|   (x2)
|---------------------------------------------|  
|------11111111-55555555-66666666-33333333----|

Sa jingle magazine....

|---------------------------------------------|
|---------------------------------------------|   
|---------------------------------------------|  
|------11111111-55555555-66666666-33333333----|

Ipagpatuloy ang daloy ng alon...

|---------------------------------------------|
|---------------------------------------------|   
|---------------------------------------------|  (x3)
|------------1111-5555-6666-3333--------------|

 Ipagpatuloy

|---------------------------------------------|
|---------------------------------------------|   
|---------------------------------------------|  
|------------1111-5555-666666666666-----------|

Baby baby Rico J...
|---------------------------------------------|
|-----------------------------------3---------|   
|---5-3-5-----5-3-5-----5-3-5-----5---5-------|  
|---------------------------------------------|  

Humataw kay Gary V...

|---------------------------------------------|
|---------------------------------------------|   
|---------------------------------------------|
|---3-5-3-----3-5-3-----3-5-3-----3-5-3-------|  

Salamat sa the Dawn...

|---------------------------------------------|
|-----------------------------------3---------|   
|---5-3-5-----5-3-5-----5-3-5-----5---5-------|  
|---------------------------------------------|  

Wag kalimutan ang Wuds...

|---------------------------------------------|
|---------------------------------------------|   
|---------------------------------------------|
|---3-5-3-----3-5-3-----3-5-3-----3-5-3-------|  

Wala pa nung MYX wala pa nung MTV...

|---------------------------------------------|
|---------------------------------------------|   (x2)
|---------------------------------------------|  
|------11111111-55555555-66666666-33333333----|

Sa jingle magazine....

|---------------------------------------------|
|---------------------------------------------|   
|---------------------------------------------|  
|------11111111-55555555-66666666-33333333----|

Ipagpatuloy ang daloy ng alon...

|---------------------------------------------|
|---------------------------------------------|   
|---------------------------------------------|  (x3)
|------------1111-5555-6666-3333--------------|

 Ipagpatuloy

|---------------------------------------------|
|---------------------------------------------|   
|---------------------------------------------|  
|--------1111-5555-66666666-33333333----------|

Padayon

|---------------------------------------------|
|---------------------------------------------|   
|---------------------------------------------|  (x3)
|------------1111-5555-6666-3333--------------|

Padayon

|---------------------------------------------|
|---------------------------------------------|   
|---------------------------------------------| 
|------------1111-5555-6666666666---------1~--|
            
Submit corrections

comments powered by Disqus
↑ Back to top | Sandwich Bass for Betamax. Lyrics for acoustic guitar and electric guitar. Tablatures and chords are parodies/interpretations of the original songs. You may use it for private study, scholarship, research or language learning purposes only