» » »

Sanctus Real, Leap Of Faith Tabs (ver.2)

Artists:  A B C D E F G H I J K L M N O P Q R S T U V W X Y Z # 

Leap Of Faith Tabs (ver.2)

Sanctus Real Tabs
Rating:
0/5 (0 votes)
Leap Of Faith lessons Tabs too difficult? Try these video lessons and learn fast
                Intro

e|-----------------------------|
B|-------------77-------797----|
G|-------669966--6699669-------|Play this Twice then the sencond Time
D|-----------------------------| Ad this to the End. 
A|-----------------------------|
E|-----------------------------|

e|------/129----|
B|-----7--------|
G|---9----------|
D|--------------|
A|--------------|
E|--------------|

Then The Verse Goes. (These are Mostly Bar chords)

C#M     E      B
e|4-----7------7
B|5-----9------7
G|6-----9------8     X3
D|6-----9------9
A|4-----7------9
E|X-----X------7

Then the Chorus

  A   E G#M  C#M  B A  E  B

Then The Intro Again

Then Verse
Then Chorus 2

Which is Slighly Different then Chorus 1 Slightly


  A  E  G#M  CM  B  A  E  B  G#  A F#  C#M  B  A

then the Solo
Beging                    Main
e|---0-0-0--|--0-0---0-0-0--0-0--0-0------------------|----|
B|---5-4-2*-|--2-0---2-0-12p9h12p9h12*-7h9p7----------|--9*|
G|----------|--------------------------------9p6---8*-|----|
D|----------|------------------------------------9----|----|Play X2
A|----------|-----------------------------------------|----|
E|----------|-----------------------------------------|----|
The First Time Through you play until the 8* the Second Time Take Away the 8*
and Play the 9*
Then Right After the Solo you Play

e|---0-0-0-0-0---|
B|---5h7-5-4-2---|
G|---------------| Play X3
D|---------------|
A|---------------|
E|---------------|
Then the Fourth Time Play

e|---0-0-0-0----|
B|---5h7-9-12---|
G|--------------|
D|--------------|
A|--------------|
E|--------------|

Then Back to the Chorus
                           (?)
With  E  G#M C#M  B  A  E  F#

Then the Ending
e|----------------------------------------------12--16--12-----|
B|---------77-------797---------77-------797--14--14--14--14---|
G|---669966--6699669------669966--6699669----------------------|
D|-------------------------------------------------------------|
A|-------------------------------------------------------------|
E|-------------------------------------------------------------|

Key
*= Half Bend
/= Slide
(?) eans Not Sure
X#= play that many times

only play E And B Bar Chords up around the 7th and 9th frets during Verse.

I Suggest You listen to the Song to get an Idea for it.
            

comments powered by Disqus
↑ Back to top | Sanctus Real Tabs for Leap Of Faith. Lyrics for acoustic guitar and electric guitar. Tablatures and chords are parodies/interpretations of the original songs. You may use it for private study, scholarship, research or language learning purposes only