>
 >
Lead Me

Lead Me Guitar Tabs

Sanctus Real - Lead Me chords, tabs, tablatures, lyrics

Guitar lessons | Add/correct | Request | Top 50 tabs Artists:  A B C D E F G H I J K L M N O P Q R S T U V W X Y Z 0-9

Lead Me Guitar Tabs – Sanctus Real

CD, Sheet music, Poster

Do you like Lead Me? Share with your friends now
ChordsChords v2TabsUkulele
KEY: C#
TUNING: # OR CAPO 1


INTRO PART 1:
C Am C Am

INTRO PART 2/VERSE 1:
               C                              Am
e|-----------------------------|-----------------------------|
B|----------1--------1---------|----------1--------1---------|
G|-------0---------0---0-------|-------2---------2---2-------|  x2
D|----2----------2-------2-----|----2----------2-------2-----| 
A|-3-----------3-----------3---|-0-----------0-----------0---|
E|-----------------------------|-----------------------------|
I look around see my...life     almost per...from the outside
Picture frames, I see my..wife  always smiling...on the inside
               G
e|-----------------------------|
B|-----------------------------|
G|-----------------------------|
D|----------------0--0---------| 
A|-------------2---------------|
E|----3---333------------------|
     I can hear her saying

CHORUS 1:
   C    Cadd3   Cadd3*  C           Gsus2 G       
e|-0----0------/-0------0------|----3-----3--------3-3-------|
B|-1----3------/-5------1------|----1-----0--------1-0-------|
G|-0--0-0---0--/-0------0------|----0-----0--------0-0-------|
D|-2--2-2---2--/-3------2------|----0-----0--------0-0-------|
A|-3--3-3---3--/-5------3------|----2-----2--------2-2-------|
E|-----------------------------|----3-----3--------3-3-------|
   Lead me, with strong hands       stand up, when I can't
   F                                    Am      G   Gsus2  G
e|-1---------------------------|--------0-------3----3-----3-|
B|-1---------------------------|--------1-------0----1-----0-|
G|-2---------------------------|--------2-------0----0-----0-|
D|-3---------------------------|--------2-------0----0-----0-|
A|-3---------------------------|--------0-------2----2-----2-|
E|-1---------------------------|----------------3----3-----3-|
   Don't leave me, hungry...    chasing dreams, what about us
  C   Cadd3    C   Cadd3 C        Gsus2 G                  G 
e|0---0--------0------0--0-----|----3---3------------------3-|
B|1---3--------1------3-p1-----|----1---0----------1--1--1-0-|
G|0---0----0---0------0--0-----|----0---0----------0--0--0-0-|
D|2---2----2---2------2--2-----|----0---0------0---0--0--0-0-|
A|3---3----3---3------3--3-----|----2---2------2---2--2--2-2-|
E|-----------------------------|----3---3------------------3-|
  Show me, you're..to fight... that I'm still, the love..life
    F   Fm  F             F         Am Amsus11  G      C
e|--1---1---1-------------1----|-----0----3-----3------0-----|
B|--1---1---1-------------1----|-----1----1-----0/1----1-----|
G|--2---1---2-------------2----|-----2----2-----0------0-----|
D|--3---3---3-------------3----|-----2----2-----0------2-----|
A|--3---3---3-------------3----|-----0----0-----2------3-----|
E|--1---1---1-------------1----|----------------3------------|
  I know we call this our home   But I    still feel   alone

VERSE 2:
               C                              Am
e|-----------------------------|-----------------------------|
B|----------1--------1---------|----------1--------1---------|
G|-------0---------0---0-------|-------2---------2---2-------|  x2
D|----2----------2-------2-----|----2----------2-------2-----| 
A|-3-----------3-----------3---|-0-----------0-----------0---|
E|-----------------------------|-----------------------------|
 I see...faces look in..eyes    They...children from the outside
 I'm work...hard tell myself... They're independent, but on the inside
               G
e|-----------------------------|
B|-----------------------------|
G|-----------------------------|
D|----------------0--0---------| 
A|-------------2---------------|
E|----3---333------------------|
 Oh I can hear her saying

CHORUS 1:
   C    Cadd3   Cadd3*  C           Gsus2 G       
e|-0----0------/-0------0------|----3-----3--------3-3-------|
B|-1----3------/-5------1------|----1-----0--------1-0-------|
G|-0--0-0---0--/-0------0------|----0-----0--------0-0-------|
D|-2--2-2---2--/-3------2------|----0-----0--------0-0-------|
A|-3--3-3---3--/-5------3------|----2-----2--------2-2-------|
E|-----------------------------|----3-----3--------3-3-------|
   Lead me, with strong hands       stand up, when I can't
   F                                    Am      G   Gsus2  G
e|-1---------------------------|--------0-------3----3-----3-|
B|-1---------------------------|--------1-------0----1-----0-|
G|-2---------------------------|--------2-------0----0-----0-|
D|-3---------------------------|--------2-------0----0-----0-|
A|-3---------------------------|--------0-------2----2-----2-|
E|-1---------------------------|----------------3----3-----3-|
   Don't leave me, hungry...    chasing dreams, what about us
  C   Cadd3    C   Cadd3 C        Gsus2 G                  G 
e|0---0--------0------0--0-----|----3---3------------------3-|
B|1---3--------1------3-p1-----|----1---0----------1--1--1-0-|
G|0---0----0---0------0--0-----|----0---0----------0--0--0-0-|
D|2---2----2---2------2--2-----|----0---0------0---0--0--0-0-|
A|3---3----3---3------3--3-----|----2---2------2---2--2--2-2-|
E|-----------------------------|----3---3------------------3-|
  Show me, you're..to fight... that I'm still, the love..life
    F   Fm  F             F         Am Amsus11  G      C
e|--1---1---1-------------1----|-----0----3-----3------0-----|
B|--1---1---1-------------1----|-----1----1-----0/1----1-----|
G|--2---1---2-------------2----|-----2----2-----0------0-----|
D|--3---3---3-------------3----|-----2----2-----0------2-----|
A|--3---3---3-------------3----|-----0----0-----2------3-----|
E|--1---1---1-------------1----|----------------3------------|
  I know we call this our home   But I    still feel   alone

BRIDGE:
    Dm                 F              C              G
e|--0------------------1-------|------0--------------3-------|
B|--3------------------1-------|------1--------------0-------|
G|--2------------------2-------|------0--------------0-------|
D|--3------------------3-------|------2--------------0-------|
A|---------------------3-------|------3--------------2-------|
E|---------------------1-------|---------------------3-------|
 So Father give me the strength to be everything I'm...to be

    Dm                 F              C               G
e|--0------------------1-------|------0---------------3------|
B|--3------------------1-------|------1---------------0------|
G|--2------------------2-------|------0---------------0------|
D|--3------------------3-------|------2---------------0------|
A|---------------------3-------|------3---------------2------|
E|---------------------1-------|----------------------3------|
 Oh Father show me the way      to lead me, won't you lead me

CHORUS 2:

   C    Cadd3   Cadd3*  C           Gsus2 G       
e|-0----0------/-0------0------|----3-----3--------3----3----|
B|-1----3------/-5------1------|----1-----0--------1----0----|
G|-0--0-0---0--/-0------0------|----0-----0--------0----0----|
D|-2--2-2---2--/-3------2------|----0-----0--------0----0----|
A|-3--3-3---3--/-5------3------|----2-----2--------2----2----|
E|-----------------------------|----3-----3--------3----3----|
 To lead them, with strong hands to stand up, when they can't
   F                                    Am      G   Gsus2  G
e|-1---------------------------|--------0-------3----3-----3-|
B|-1---------------------------|--------1-------0----1-----0-|
G|-2---------------------------|--------2-------0----0-----0-|
D|-3---------------------------|--------2-------0----0-----0-|
A|-3---------------------------|--------0-------2----2-----2-|
E|-1---------------------------|----------------3----3-----3-|
  Don't want to...hungry...love chasing things...could give up
  C   Cadd3    C   Cadd3 C        Gsus2 G                  G 
e|0---0--------0------0--0-----|----3---3------------------3-|
B|1---3--------1------3-p1-----|----1---0----------1--1--1-0-|
G|0---0----0---0------0--0-----|----0---0----------0--0--0-0-|
D|2---2----2---2------2--2-----|----0---0------0---0--0--0-0-|
A|3---3----3---3------3--3-----|----2---2------2---2--2--2-2-|
E|-----------------------------|----3---3------------------3-|
  I'll show them, willing..fight give them the best of...life
    F   Fm  F             F         Am Amsus11  G      C
e|--1---1---1-------------1----|-----0----3-----3------0-----|
B|--1---1---1-------------1----|-----1----1-----0/1----1-----|
G|--2---1---2-------------2----|-----2----2-----0------0-----|
D|--3---3---3-------------3----|-----2----2-----0------2-----|
A|--3---3---3-------------3----|-----0----0-----2------3-----|
E|--1---1---1-------------1----|----------------3------------|
  So we can call this our home  Lead me, cause I...feel alone


-God bless!





Comments


Popular Sanctus Real tabs & chords
Everything About You Chords
I Love You 1 Chords
I'll Show You How To Live Chords
Run Chords
Shining 1 Chords
Til I Got To Know You Chords
Whatever Your Doing Chords
Audience Of One Tabs
Beautiful Day Tabs
Things Like You Ukulele


Song lyrics



↑ Back to top | Tablatures and chords are parodies/interpretations of the original songs. You may use it for private study, scholarship, research or language learning purposes only
© 2014 AZChords.com Contact us | Privacy policy | DMCA | Add/correct tabs | Request tabs | Top 50 tabs