» » »

I'm Not Alright Tabs (ver.3)

Artists:  A B C D E F G H I J K L M N O P Q R S T U V W X Y Z # 

I'm Not Alright Tabs (ver.3)

Sanctus Real
Rating:
0/5 (0 votes)

Hard to play? Try these video lessons and learn fast.
                “I’m Not Alright”
Sanctus Real

Drop Db Tuning Db-Ab-Db-Gb-Bb-Eb
Drop C# Tuning C#-G#-C#-F#-A#-D#
b^=bend up 1 whole step
b=bend
sd=slide down
h=hammer on
s=slide

INTRO:
GTR 1
D#[-----------------------------------------]
A#[-13-13-13-13-13-13-13-13-13-13-----------]
F#[-16-16-14-14-14-16-16-16-16-16b^---------] (x4)
C#[-----------------------------------------]
G#[-----------------------------------------]
C#[-----------------------------------------]

GTR 2
D#[----------------]
A#[----------------]
F#[----------------]
C#[--3----0--------]
G#[--3----0--------]
C#[--3----0--------]

VERSE 1:
GTR 1
D#[---0---0---0---0----0----------0-------0-----0--------]
A#[-----1-------1------1--------1-------1-------1--------]
F#[-2-------0----------0------2-------2---------0--------]
C#[--------------------2----3-------2-----------2--------]
G#[--------------------3------------------------3--------]
C#[------------------------------------------------------]

D#[---0---0----0---0------------------------0------------]
A#[-----1--------1----------1-------1-----1---1----------]
F#[-2--------0------------0-------0-----2----------------]
C#[---------------------2-------2------------------------]
G#[-------------------3-------2--------------------------]
C#[-----------------------------------3------------------]

D#[------0------0---0---0---0--0---------0-------0-------------]
A#[----1---1------1-------1----1-------1-------1-------5-------]
F#[-----------2-------0--------0-----2-------2-------5---5-----]
C#[--3-------------------------2---3-------2-------------------]
G#[----------------------------3-------------------------------]
C#[------------------------------------------------5-----------]

D#[---0---0----0---0------------------------0-------0------]
A#[-----1--------1----------1-------1-----1---1---1---1----]
F#[-2--------0------------0-------0-----2------------------]
C#[---------------------2-------2---------------3----------]
G#[-------------------3-------2----------------------------]
C#[-----------------------------------3--------------------]



PRE CHORUS:
GTR 2
D#[---------------------------]
A#[---------------------------]
F#[--0---0-------0---0--------]
C#[--3---2-------3---2--------]
G#[--3---3---5---3---3---5----]
C#[----------5-----------5----]

Then GTR 1
D#[-5sd----]
A#[--------]
F#[--------]
C#[--------]
G#[--------]
C#[--------]

CHORUS:
GTR 2///////////////////
D#[------------------------------------]
A#[------------------------------------]
F#[------------------------------------]
C#[-7--10--5----3--12--5---------------]
G#[-8--10--5----3--10--5---------------]
C#[-7--10--5----3--10--5---------------]


GTR1//////////
D#[------------------------------------]
A#[------------------------------------]
F#[5/4-5/4-5/5/4-----------------------]
C#[------------------------------------]
G#[------------------------------------]
C#[------------------------------------]

Post-Chorus
D#[-3----------------------------------]
A#[--5--5------------------------------](x2)
F#[---5--5-----------------------------]
C#[------------------------------------]
G#[------------------------------------]
C#[------------------------------------]

Verse 2
(same as Verse 1)

Pre-Chorus 2
No guitar

Chorus 
then...

Chorus 2
D#[------------------------------]
A#[------------------------------]
F#[----------------7-------------]
C#[-7--10--5-x5-x5-7--10-12----2-]
G#[-8--10--5-x5-x5-5---7--8----2-]
C#[-7--10--5-x5-x5-----7--8----2-]

Bridge

GTR 2
D#[---------------------------------------------------------------]
A#[---------------------------------------------------------------]
F#[---------------------------------------------------------------]
C#[-3--7--10--12----3--7--10--5----3--7--10--12----3--7--10--6----]
G#[-3--7--10--12----3--7--10--5----3--7--10--12----3--7--10--6----]
C#[-3--7--10--12----3--7--10--5----3--7--10--12----3--7--10--6----]

GTR 1
D#[------------------------------------------------------------------------]
A#[------------------------------------------------------------------------]
F#[-12h14/14/14/14/14/14/14-12h14/14/14/14/14/14/14-12/12/12/12/12/12/12/12]
C#[------------------------------------------------------------------------]
G#[------------------------------------------------------------------------]
C#[------------------------------------------------------------------------]

D#[------------------------------------------------------------------------]
A#[------------------------------------------------------------------------]
F#[-10-7--10-7-------------------------------------------------------------]
C#[------------------------------------------------------------------------]
G#[------------------------------------------------------------------------]
C#[------------------------------------------------------------------------]

D#[------------------------------------------------------------------------]
A#[------------------------------------------------------------------------]
F#[-12h14/14/14/14/14/14/14-12h14/14/14/14/14/14/14-12/12/12/12/12/12/12/12]
C#[------------------------------------------------------------------------]
G#[------------------------------------------------------------------------]
C#[------------------------------------------------------------------------]

D#[------------------------------------------------------------------------]
A#[------------------------------------------------------------------------]
F#[-10-7--10-7-------------------------------------------------------------]
C#[------------------------------------------------------------------------]
G#[------------------------------------------------------------------------]
C#[------------------------------------------------------------------------]

D#[------------------------------------------------------------------------]
A#[-13h13/13/13/13/13/13/13 13h13/13/13/13/13/13/13-13/13/13/13/13/13/13/13]
F#[-12h14/14/14/14/14/14/14-12h14/14/14/14/14/14/14-12/12/12/12/12/12/12/12]
C#[------------------------------------------------------------------------]
G#[------------------------------------------------------------------------]
C#[------------------------------------------------------------------------]

D#[------------------------------------------------------------------------]
A#[------------------------------------------------------------------------]
F#[-10-7--10-7-------------------------------------------------------------]
C#[------------------------------------------------------------------------]
G#[------------------------------------------------------------------------]
C#[------------------------------------------------------------------------]

D#[------------------------------------------------------------------------]
A#[-13h13/13/13/13/13/13/13 13h13/13/13/13/13/13/13-13/13/13/13/13/13/13/13]
F#[-12h14/14/14/14/14/14/14-12h14/14/14/14/14/14/14-12/12/12/12/12/12/12/12]
C#[------------------------------------------------------------------------]
G#[------------------------------------------------------------------------]
C#[------------------------------------------------------------------------]

D#[---------------]
A#[---------------]
F#[-8--7--5-------]
C#[---------6--5--]
G#[---------------]
C#[---------------]

Chorus 3
Acoustic
Am C G
F C G

Then...
distortion
GTR 2
D#[-------------------------------------------------------------]
A#[-------------------------------------------------------------]
F#[-------------------------------------------------------------]
C#[-7--10--5--3--10--5--3--10--5--12--7--5--3--10--5--3--10--5--]
G#[-8--10--5--3--10--5--3--10--5--12--7--5--3--10--5--3--10—-5--]
C#[-7--10--5--3--10--5--3--10--5--12--7--5--3--10--5--3--10--5--]

D#[-----------------------]
A#[-----------------------]
F#[-----------------------]
C#[-3--10--5----3--10--5--]
G#[-3--10--5----3--10--5--]
C#[-3--10--5----3--10--5--]

GTR 1
D#[----------------------------------------------------------------]
A#[-10/10/10/10/10/10/10/10-10/10/10/10/10/10/10/10-8/8/8/8/8/8/8/8] x2
F#[----------------------------------------------------------------]
C#[----------------------------------------------------------------]
G#[----------------------------------------------------------------]
C#[----------------------------------------------------------------]


D#[------------------------------------------------------------------------]
A#[------------------------------------------------------------------------]
F#[12h14/14/14/14/14/14/14-12h14/14/14/14/14/14/14-12/12/12/12/12/12/12/12-]
C#[------------------------------------------------------------------------]
G#[------------------------------------------------------------------------]
C#[------------------------------------------------------------------------]

D#[-------------]
A#[-------------]
F#[-10-7--10-7--]
C#[-------------]
G#[-------------]
C#[-------------]

D#[-------------------------------]
A#[-------------------------------]
F#[-2--2s4-4s5-7s9----10-9-10-12--]
C#[-x--xsx-xsx-xsx-----x-x--x--x--]
G#[-0--0s2-2s3-5s7-----8-7--8-10--]
C#[-------------------------------]

D#[------------------------------------------------------------------------]
A#[------------------------------------------------------------------------]
F#[-12h14/14/14/14/14/14/14-12h14/14/14/14/14/14/14-12/12/12/12/12/12/12/12]
C#[------------------------------------------------------------------------]
G#[------------------------------------------------------------------------]
C#[------------------------------------------------------------------------]

D#[-------------------]
A#[--------------8sd--]
F#[-10-7--10-7--------]
C#[-------------------]
G#[-------------------]
C#[-------------------]

Fade into Eloquent.

Lyrics

If weakness is a wound 
That no one wants to speak of 
Then "cool" is just how far we have to fall 
I am not immune 
I only want to be loved 
But I feel safe behind the firewall 
Can I lose my need to impress? 
If you want the truth, I need to confess 

I'm not alright 
I'm broken inside, broken inside 
And all I go through 
It leads me to you, it leads me to you 

Burn away the pride 
Bring me to my weakness 
Until everything I hide behind is gone 
And when I'm open wide 
With nothing left to cling to 
Only you are there to lead me on 
Cause honestly, I'm not that strong 

I'm not alright 
I'm broken inside, broken inside 
And all I go through 
It leads me to you, it leads me to you 

And I move, and I move, and I move...closer to you 
And I move, and I move, and I move...closer to you 
And I move, and I move, and I move...closer to you 
And I move, and I move, and I move... 

I'm not alright 
I'm broken inside, broken inside 
broken inside, broken inside 
And all I go through 
Leads me to you, leads me to you 

I'm not alright, I'm not alright, I'm not alright...that's why I need you 
            
Hard to play? Try these video lessons and learn fast. | Correct




comments powered by Disqus
↑ Back to top | Tablatures and chords are parodies/interpretations of the original songs. You may use it for private study, scholarship, research or language learning purposes only