» » »

Sanctus Real, Beautiful Day Tabs (ver.2)

Artists:  A B C D E F G H I J K L M N O P Q R S T U V W X Y Z # 

Beautiful Day Tabs (ver.2)

Sanctus Real Tabs
Rating:
5/5 (3 votes)
Beautiful Day lessons Tabs too difficult? Try these video lessons and learn fast
                ----------------------------------------------------------------------------
Beautiful day (Tribute to U2)
Sanctus Real
(in the name of love)U2 tributes
----------------------------------------------------------------------------

Tuning: Drop D you can put it in standard but i love tuning everything in drop d so blah

p-that means there will be a pause on the beginning of the song and the bridge so watch 
it and that pause on the bridge will mean that you will need to strum once

pm=Palm mute.

beginning of the song there will be a pause and then PM strum
_______________________________________________________________________
e/-------------------------------------------------------------|
b/----------------6-6-6------------------6-6-6-6-6-6-----------|
g/----------------6-6-6------------------6-6-6-6-6-6-----------|  (x2)
d/--6-6-6--8-8-8--4-4-4-4-4-4-4-4-4------4-4-4-4-4-4--6--------|
a/--6-6-6--8-8-8--------4-4-4-4-4-4-------------------6-(x12)--|
d/--6-6-6--8-8-8--------4-4-4-4-4-4-------------------6--------|
________palm mute 2 times and the third time strum normally___________

Verse
e/-------------------------------------------------------------|
b/----------------6-6-6------------------6-6-6-6-6-6-----------|
g/----------------6-6-6------------------6-6-6-6-6-6-----------|  (x6)
d/--6-6-6--8-8-8--4-4-4-4-4-4-4-4-4------4-4-4-4-4-4--6--------|
a/--6-6-6--8-8-8--------4-4-4-4-4-4-------------------6-(x12)--|
d/--6-6-6--8-8-8--------4-4-4-4-4-4-------------------6--------|
__________________________Palm mute verse________________________

CHORUS
e/-------------------------------------------------------------|
b/----------------6-6-6------------------6-6-6-6-6-6-----------|
g/----------------6-6-6------------------6-6-6-6-6-6-----------|  (x2)
d/--6-6-6--8-8-8--4-4-4-4-4-4-4-4-4------4-4-4-4-4-4--6--------|
a/--6-6-6--8-8-8--------4-4-4-4-4-4-------------------6-(x12)--|
d/--6-6-6--8-8-8--------4-4-4-4-4-4-------------------6--------|

verse 2
just like verse one

(chorus)

Before bridge
play once then

bridge
e/----------------------------------------------------------|
b/----------------------------------------------------------|
g/-----------------------------6---------------------6-6----|(repeat once)
d/-----------------------------6---------------------6-6-6--|
a/-----------------------------4---------------------4-4-6--|
d/-------------------------------------------------------6--|
see the world in green in blue(p) see china right frontofyou

this is still the bridge so keep up with me
e|--------------------------------------------------------------|
B|--------------------------------------------------------------|
G|----------------------------6---------------------------------|
D|----------------------------6-(strum)----------6--------------|
A|----------------------------4------------------6-(strum)------|
D------------------------------------------------6--------------|
See the Bedouin fires at night see the oil fields at first light

e|--------------------------------------------------------------------------|
B|--------------------------------------------------------------------------|
G|----------------------------------6---------------------------------------|
D|6---------------------------------6---------------6-----------------------|
A|6---------------------------------4-(PM strum)----6-(PM-strum)------------|
D|6-------------------------------------(X6)--------6----(x6)---------------|
see the bird with leaf in her mouth After the flood all the colors came out
                              PM this part
then there will be another pause sit tightly until the drummer hits the symbol begining 
chorus and then the outro of the song.
this is my first tab so if you got problems with it deal with me on msn i'll be on trust me.
            

comments powered by Disqus
↑ Back to top | Sanctus Real Tabs for Beautiful Day. Lyrics for acoustic guitar and electric guitar. Tablatures and chords are parodies/interpretations of the original songs. You may use it for private study, scholarship, research or language learning purposes only