» » »

Tineoidea Tabs (ver.2)

Artists:  A B C D E F G H I J K L M N O P Q R S T U V W X Y Z # 

Tineoidea Tabs (ver.2)

Samsas Traum
Rating:
0/5 (0 votes)

Hard to play? Try these video lessons and learn fast.
                (Intro)
W = whole note
H = half
Q = quarter

     W                   Q    Q    Q     Q       W                 
E||--3----------------|-----------------------|--5----------------|
B||--5----------------|-----------------------|--7----------------|
G||--5----------------|-----------------------|--7----------------|
D||--5----------------|-----------------------|--7----------------|
A||--3----------------|-------7----9----10----|--5----------------|
E||-------------------|-----------------------|-------------------|


  H        Q    E  E     H        H           H        H         
----------------------|--------------------|--------------------|
----------------------|--------------------|--------------------|
----------------------|--------------------|--7--------9--------|
-----------7----5--4--|--2-----------------|--5--------7--------|
--5-------------------|--2--------3--------|--------------------|
----------------------|--0-----------------|--------------------|


   W                      
--------------------|
--------------------|
--11----------------|
---9----------------|
--------------------|
--------------------|
            
Hard to play? Try these video lessons and learn fast. | Correct




comments powered by Disqus
↑ Back to top | Tablatures and chords are parodies/interpretations of the original songs. You may use it for private study, scholarship, research or language learning purposes only