» » »

Samsas Traum, Tineoidea Tabs (ver.1)

Artists:  A B C D E F G H I J K L M N O P Q R S T U V W X Y Z # 

Tineoidea Tabs (ver.1)

Samsas Traum Tabs
Rating:
0/5 (0 votes)
Tineoidea lessons Tabs too difficult? Try these video lessons and learn fast
                (Intro)
Das ist die Melodielinie des Intros der Akustik-Version von Tineoidea (zumindest klingt 

4/4 Takt

E||--3----------------|-----------------------|--5----------------|
B||--5----------------|-----------------------|--7----------------|
G||--5----------------|-----------------------|--7----------------|
D||--5----------------|-----------------------|--7----------------|
A||--3----------------|-------7----9----10----|--5----------------|
E||-------------------|-----------------------|-------------------|

----------------------|--------------------|--------------------|
----------------------|--------------------|--------------------|
----------------------|--------------------|--7--------9--------|
-----------7----5--4--|--2-----------------|--5--------7--------|
--5-------------------|--2--------3--------|--------------------|
----------------------|--0-----------------|--------------------|

--------------------|
--------------------|
--11----------------|
---9----------------|
--------------------|
--------------------|


-----------------|-----------------|--------------------|
--7--------8---10|--7-------8----10|-10/12------10----8-|
-----------------|-----------------|--------------------|
-----------------|-----------------|--------------------|
-----------------|-----------------|--------------------|
-----------------|-----------------|--------------------|


-----------------|-----------------|--------------------|
--12------10----8|--12------10----8|--12--------10----7-|
-----------------|-----------------|--------------------|
-----------------|-----------------|--------------------|
-----------------|-----------------|--------------------|
-----------------|-----------------|--------------------|

-----------------|------------5---7|
--8--------7----5|--8-------7------|
-----------------|-----------------|
-----------------|-----------------|
-----------------|-----------------|
-----------------|-----------------|


-----------------|------------7----|--10----------------|
-5---------7-8--7|-7---5-----------|-------10-----------|
-----------------|--------7--------|--------------------|
-----------------|-----------------|--------------------|
-----------------|-----------------|--------------------|
-----------------|-----------------|--------------------|


-----------------|-----------------|--------------------|
-8--7--5---------|--7---8---7------|--7---5-------5-----|
-----------------|-----------------|----------7---------|
-----------------|-----------------|--------------------|
-----------------|-----------------|--------------------|
-----------------|-----------------|--------------------|


....Arbeite am Rest- Weltmacht oder Niedergang!
            

comments powered by Disqus
↑ Back to top | Samsas Traum Tabs for Tineoidea. Lyrics for acoustic guitar and electric guitar. Tablatures and chords are parodies/interpretations of the original songs. You may use it for private study, scholarship, research or language learning purposes only