>
 >
Laguna

Laguna Bass Tabs

Sampaguita - Laguna chords, tabs, tablatures, lyrics

Guitar lessons | Add/correct | Request | Top 50 tabs Artists:  A B C D E F G H I J K L M N O P Q R S T U V W X Y Z 0-9

Laguna Bass Tabs – Sampaguita

CD, Sheet music, Poster

Do you like Laguna? Share with your friends now
Bass Tabs
Intro: . . . comes in at 0:21

					Ahhh ahhh . . . 
G|----------|----------|----------|----------|----------|
D|----------|----------|----------|----------|----------|
A|----------|----------|----------|-77777777-|-77777777-|
E|-------5h-|-77777777-|-77777777-|----------|----------|

G|----------|----------|----------|----------|
D|----------|----------|----------|----------|
A|----------|----------|----------|----------|
E|-55555555-|-55555555-|-77777777-|-77777777-|

G|----------|----------|----------|----------|----------|----------|
D|----------|----------|----------|----------|----------|----------|
A|-77777777-|-77777777-|-77777777-|-77777777-|----------|----------|
E|----------|----------|----------|----------|-55555555-|-55555555-|

G|----------|----------|----------|----------|
D|----------|----------|----------|----------|
A|----------|----------|-77777777-|-77777777-|
E|-77777777-|-77777777-|----------|----------|

Verse I:

G|----------|----------|----------|----------|
D|----------|----------|----------|----------|
A|-22-------|-22-------|-77-------|-77-------|
E|----4-2-4-|----4-2-4-|----9-7-9-|----9-7-9-|

G|----------|----------|----------|----------|
D|----------|----------|----------|----------|
A|-22-------|-22-------|-77-------|-77-------|
E|----4-2-4-|----4-2-4-|----9-7-9-|----9-7-9-|

G|----------|----------|----------|----------|
D|-77-------|-77-------|----------|----------|
A|----9-7-9-|----9-7-9-|-77-------|-77-------|
E|----------|----------|----9-7-9-|----9-7-9-|

G|----------|----------|----------|----------|
D|-77-------|-77-------|----------|----------|
A|----9-7-9-|----9-7-9-|----------|----------|
E|----------|----------|-22222222-|-77777777-|

Verse II:

G|----------|----------|----------|----------|
D|----------|----------|----------|----------|
A|-22-------|-22-------|-77-------|-77-------|
E|----4-2-4-|----4-2-4-|----9-7-9-|----9-7-9-|

G|----------|----------|----------|----------|
D|----------|----------|----------|----------|
A|-22-------|-22-------|-77-------|-77-------|
E|----4-2-4-|----4-2-4-|----9-7-9-|----9-7-9-|

G|----------|----------|----------|----------|
D|-77-------|-77-------|----------|----------|
A|----9-7-9-|----9-7-9-|-77-------|-77-------|
E|----------|----------|----9-7-9-|----9-7-9-|

G|----------|----------|----------|----------|----------|
D|-77-------|-77-------|----------|----------|----------|
A|----9-7-9-|----9-7-9-|----------|----------|----------|
E|----------|----------|-22222222-|-77777777-|-77777777-|

Chorus:

G|----------|----------|----------|----------|
D|----------|----------|-44-------|-44-------|
A|-77-------|-77-------|----6-4-6-|----6-4-6-|
E|----9-7-9-|----9-7-9-|----------|----------|

G|----------|----------|----------|----------|
D|-77-------|-77-------|----------|----------|
A|----9-7-9-|----9-7-9-|-22-------|-22-------|
E|----------|----------|----4-2-4-|----4-2-4-|

G|---------|---------|---------|---------|
D|---------|---------|---------|---------|
A|-7-7-7-7-|-7-7-7-7-|-7-7-7-7-|-7-7-7-7-|
E|---------|---------|---------|---------|

G|---------|---------|---------|---------|
D|---------|---------|---------|---------|
A|-7-7-7-7-|-7-7-7-7-|-7-7-7-7-|-7-------|
E|---------|---------|---------|---------|

Pre-Verse: (Repeat Intro pattern)

Verse III: (Repeat Verse I pattern)

Chorus / Outro: (Repeat pattern from Chorus, below, 8x, to fade)

G|----------|----------|----------|----------|
D|----------|----------|-44-------|-44-------|
A|-77-------|-77-------|----6-4-6-|----6-4-6-|
E|----9-7-9-|----9-7-9-|----------|----------|

G|----------|----------|----------|----------|
D|-77-------|-77-------|----------|----------|
A|----9-7-9-|----9-7-9-|-22-------|-22-------|
E|----------|----------|----4-2-4-|----4-2-4-|





Comments


Popular Sampaguita tabs & chords
Bonggahan Bass Tabs
Easy Lang Pare Bass Tabs
Nosi Balasi Bass Tabs
Tao Bass Tabs
Nosi Balasi Chords
Nosi Balasi 1 Chords
Nosi Balasi Tabs
Nosi Balasi 2 Tabs
Nosi Balasi Intro Tabs
Sa Diyos Lamang Tabs


Song lyrics



↑ Back to top | Tablatures and chords are parodies/interpretations of the original songs. You may use it for private study, scholarship, research or language learning purposes only
© 2014 AZChords.com Contact us | Privacy policy | DMCA | Add/correct tabs | Request tabs | Top 50 tabs