» » »

Sampaguita, Easy Lang Pare Bass tabs (ver.1)

Artists:  A B C D E F G H I J K L M N O P Q R S T U V W X Y Z # 

Easy Lang Pare Bass tabs (ver.1)

Sampaguita Tabs
Rating:
0/5 (0 votes)
Easy Lang Pare lessons Tabs too difficult? Try these video lessons and learn fast
                Intro:

G|----------|----------|-/14------|-/14--------------|
D|----------|----------|----------|------------------|
A|----------|-/12------|----------|----------/12-/12-|
E|-5--------|----------|----------|------------------|

G|----------|------------|------------|----------------|
D|----------|------------|------------|----------------|
A|----------|------------|------------|----------------|
E|-55---5-5-|-5555---5-5-|-5555---5-5-|-5555---5/10-12-|

Verse I:
Sya’y isang babae . . .
G|------------|----------|------------|------------|
D|------------|----------|------------|------------|
A|------------|-5-x5-3-3-|------------|------------|
E|-55-x5-x5-5-|----------|-55-x5-x5-5-|-55-x5-x5-5-|

G|---------|----------|------------|------------|
D|---------|----------|------------|------------|
A|-5--55-5-|-3---3----|------------|------------|
E|---5-----|----------|-55-x5-x5-5-|-55-x5-x5-5-|

G|-----------|---------|------------|------------|
D|-----------|---------|------------|------------|
A|-3--33---3-|-5----53-|------------|------------|
E|---3-------|-----5---|-55-x5-x5-5-|-55-x5-x5-3-|

Chorus:
Easy pare lang . . . 
G|----------|-----------|---------------|-------------|
D|----------|-----------|---------------|-------------|
A|----------|-5-53----3-|-------3-------|-------3-----|
E|-5--------|-----------|-5-3-5---5-3-5-|-5-3-5---5-3-|

G|----------|-----------|---------------|-------------|
D|----------|-----------|---------------|-------------|
A|----------|-5-53----3-|-------3-------|-------3-5-7-|
E|-5--------|-----------|-5-3-5---5-3-5-|-5-3-5-------|

Verse II: Do Verse I pattern
Bulaklak sa umaga . . .

Repeat Chorus

Adlib:
G|---------|---------|------------|------------|
D|---------|---------|------------|------------|
A|---------|-5---5-3-|------------|------------|
E|-5-555-5-|---------|-55-x5-x5-5-|-55-x5-x5-5-|

G|---------|--------|------------|------------|
D|---------|--------|------------|------------|
A|-5-555-5-|-3-33-3-|------------|------------|
E|---------|--------|-55-x5-x5-5-|-55-x5-x5-5-|

G|---------|---------|
D|---------|---------|
A|-3-333-3-|-5-555---|
E|---------|-------3-|

G|-----|-----|-----|-----|-----|-----|-----|---------|
D|-----|-----|-----|-----|-----|-----|-----|---------|
A|-----|-----|-----|-----|-----|-----|-----|---------|
E|-5-5-|-5-5-|-5-5-|-5-5-|-5-5-|-5-5-|-5-5-|-3/5-3/5-|

G|------------|------------|------------|------------|
D|------------|------------|------------|------------|
A|------------|------------|------------|------------|
E|-55-x5-x5-5-|-55-x5-x5-5-|-55-x5-x5-5-|-55-x5-x5-5-|

Repeat Chorus

Repeat Verse II

Repeat Chorus 2x

Outro:
Oh! 
G|---------|---------|------------|------------|
D|---------|---------|------------|------------|
A|---------|-5---5-3-|------------|----------7-|
E|-5-555-5-|---------|-55-x5-x5-5-|-55-x5-x5---|

					. . . to fade
G|---------|--------|------------|------------|
D|---------|--------|------------|------------|
A|-5-555-5-|-3-33-3-|------------|------------|
E|---------|--------|-55-x5-x5-5-|-55-x5-x5-5-|
            

comments powered by Disqus
↑ Back to top | Sampaguita Bass for Easy Lang Pare. Lyrics for acoustic guitar and electric guitar. Tablatures and chords are parodies/interpretations of the original songs. You may use it for private study, scholarship, research or language learning purposes only