» » »

Sammy Hagar, I've Done Everything For You Tabs (ver.1)

Artists:  A B C D E F G H I J K L M N O P Q R S T U V W X Y Z # 

I've Done Everything For You Tabs (ver.1)

Sammy Hagar Tabs
 Rating:
4/5 (4 votes)
I've Done Everything For You lessons Tabs too difficult? Try these video lessons and learn fast
                Internet in general.  This is the start of trying to fix that little oversight.

Sammy Hagar - I've Done Everything for You

Standard Tuning

Figure 1: Intro - Part 1

e----------------------------------------------------------------------------|
B----------------------------------------------------------------------------|
G----------------------------------------------------------------------------|
D----9-------9-------9-------------------------------------------------------|
A----9-------9-------9-------------------------------------------------------|
E--------7-------7-----7-----------------------------------------------------|
     <--------x3-------------------------------------------------------------|

Figure 2: Intro - Part 2

e----------------------------------------------------------------------------|
B----------------------------------------------------------------------------|
G-----------------------------4----------------------------------------------|
D--2-2-2-2-2-2-2-2-2-2-2-2----4----------------------------------------------|
A--2-2-2-2-2-2-2-2-2-2-2-2----2----------------------------------------------|
E--0-0-0-0-0-0-0-0-0-0-0-0---------------------------------------------------|
   <------------x2-----------------------------------------------------------|

Figure 3: Verse 1 & 2

e---------------------------------------------------------------------------|
B---------------------------------------------------------------------------|
G-----------------------------4-4-4-4-4-4-4-4-4-4-4-4-----------------------|
D--2-2-2-2-2-2-2-2-2-2-2-2----4-4-4-4-4-4-4-4-4-4-4-4-----------------------|
A--2-2-2-2-2-2-2-2-2-2-2-2----2-2-2-2-2-2-2-2-2-2-2-2-----------------------|
E--0-0-0-0-0-0-0-0-0-0-0-0--------------------------------------------------|

Figure 4: Pre-Chorus 1 & 2

e---------------------------------------------------------------------------|
B---------------------------------------------------------------------------|
G---------------------------------------------------------------------------|
D--7------------------7--7----9------------------9--9-----------------------|
A--7------------------7--7----9------------------9--9-----------------------|
E--5------------------5--5----7------------------7--7-----------------------|

Figure 5: Chorus

e----------------------------------------------------------------------------|
B----------------------------------------------------------------------------|
G--9-----9-----9-------------------9----------------9------------------------|
D--9--9--9--9--9--9--7--------9----9-------9-9-9-9--9------------------------|
A--7--9--7--9--7--9--7--------9----7-------9-9-9-9--7------------------------|
E-----7-----7-----7--5--------7------------7-7-7-7---------------------------|
   <-------------x2----------->            <---------------------------------|
                                           Omit 3rd time (after interlude)

Figure 6: Interlude

e----------------------------------------------------------------------------|
B----------------------------------------------------------------------------|
G----------------------------------------------------------------------------|
D--4----7----9-11-9-9--9-11-9-9----4-----------7----9------------------------|
A--4----7----7--7-7-7--7--7-7-7—---4-----------7----9------------------------|
E--2----5----0--0-0-0--0--0-0-0----2-----------5----7------------------------|
   <-------------x2----------------------------------------------------------|

Figure 7: Verse (Last)

e---------------------------------------------------------------------------|
B---------------------------------------------------------------------------|
G-----------------------------6-6-6-6-6-6-6-6-6-6-6-6-----------------------|
D--4-4-4-4-4-4-4-4-4-4-4-4----6-6-6-6-6-6-6-6-6-6-6-6-----------------------|
A--4-4-4-4-4-4-4-4-4-4-4-4----4-4-4-4-4-4-4-4-4-4-4-4-----------------------|
E--2-2-2-2-2-2-2-2-2-2-2-2--------------------------------------------------|

Figure 8: Pre-Chorus (Last)

e---------------------------------------------------------------------------|
B---------------------------------------------------------------------------|
G-----------------------------6------------------6--6-----------------------|
D--4------------------4--4----6------------------6--6-----------------------|
A--4------------------4--4----4------------------4--4-----------------------|
E--2------------------2--2--------------------------------------------------|

Figure 9: Chorus (Last)

e----------------------------------------------------------------------------|
B----------------------------------------------------------------------------|
G-11----11----11------------------11--------------------11-------------------|
D-11-11-11-11-11-11--9-------11---11------11-11-11-11---11-------------------|
A--9-11--9-11--9-11--9-------11----9------11-11-11-11----9-------------------|
E-----9-----9-----9--7--------9------------9--9--9--9------------------------|
   <-------------x2----------------------------------------------------------|

Figure 10: Ending

e----------------------------------------------------------------------------|
B----------------------------------------------------------------------------|
G---------------11-----------------------------------------------------------|
D-11-11-11-11---11-----------------------------------------------------------|
A-11-11-11-11----9-----------------------------------------------------------|
E--9--9--9--9----------------------------------------------------------------|
  <----x3--------------------------------------------------------------------|

Figure 1
Figure 2
Figure 3 (x2)
Well this one way love affair it ain't fair it ain't no kinda fair to me
It's all give and take and you just take and I can't take it ya see

Figure 4
And I've given up on love this time
Me and my friends will do just fine because

Figure 5
I've done everything for you, you've done nothin' for me
I've done everything for you, you've done nothin' for me
You've done nothin' for me

Figure 3 (x2)
Well you need some pay and have a whole lotta money and be a millionaire
Yeah but when that didn't happen overnight I found out how much you really care

Figure 4
All you want is a whole lotta money
All the rest is just jivin' honey

Figure 5
I've done everything for you, you've done nothin' for me
I've done everything for you, you've done nothin' for me
You've done nothin' for me

Figure 6
When I first met you you didn't know how to hook a man (you've done nothin')
There were so many things about makin' love you didn't understand (you've done nothin')
But now you know about everything and I'll take you on a pair of wings

Figure 5
I've done everything for you, you've done nothin' for me
I've done everything for you, you've done nothin' for me
You've done nothin' for me

Figure 7 (x2)
I'm going out on the town tonight and get as wild as I can be
I'm gonna find out what it's really like to be loose, high, and free

Figure 8
Yeah I don't care what people say
I'll change my mind, it's gonna change this day

Figure 9
I've done everything for you, you've done nothin' for me
I've done everything for you, you've done nothin' for me
You've done nothin' for me

Figure 10
You’ve done nothin’
You’ve done nothin’
You’ve done nothin’ for me
Nothin’!
Zero!
            
Submit corrections

comments powered by Disqus
↑ Back to top | Sammy Hagar Tabs for I've Done Everything For You. Lyrics for acoustic guitar and electric guitar. Tablatures and chords are parodies/interpretations of the original songs. You may use it for private study, scholarship, research or language learning purposes only