» » »

Sammy Hagar, I'll Fall In Love Again Bass tabs (ver.1)

Artists:  A B C D E F G H I J K L M N O P Q R S T U V W X Y Z # 

I'll Fall In Love Again Bass tabs (ver.1)

Sammy Hagar Tabs
 Rating:
4/5 (4 votes)
I'll Fall In Love Again lessons Tabs too difficult? Try these video lessons and learn fast
1
                -----------------------------------------------------------------------------
		                  
            
-----------------------------------------------------------------------------

Tuning: standard tuning

=============================================================================

Bass



             E  E  E  E  E  E  E  E     E  E  E  E  E  E  E  E   
G||-------|--------------------------|--------------------------|
D||-------|--------------------------|--------------------------|
A||-------|--------------------------|--------------------------|
E||-------|--5-----5-----5-----5-----|--5-----5-----5-----5-----|


  E  E  E  E  E  E  E  E     E  E  E  E  E  E  E  E   
--------------------------|--------------------------|
--------------------------|--------------------------|
--------------------------|--------------------------|
--5-----5-----5-----5-----|--5-----5-----5-----5-----|


  E  E  E  E  E  E  E  E     E  E  E  E  E  E  E  E   
--------------------------|--------------------------|
--------------------------|--------------------------|
--------------------------|--------------------------|
--5-----5-----5-----5-----|--5-----5-----5-----5-----|


  E  E  E  E  E  E  E  E     E  E  E  E  E  E  E  E   
--------------------------|--------------------------|
--------------------------|--------------------------|
--------------------------|--------------------------|
--5-----5-----5-----5-----|--5-----5-----5--0--2--3--|


  E  E  E  E  E  E  E  E     E  E  E  E  E  E  E  E   
--------------------------|--------------------------|
--------------------------|--------------------------|
--------------------------|--------------------------|
--5-----5-----5-----5-----|--5-----5-----5-----5--0--|


  E  E  E  E  E  E  E  E     E  E  E  E  E  E  E  E   
--------------------------|--------------------------|
--------------------------|--------------------------|
--------------------------|--------------------------|
--5-----5-----5-----5-----|--5-----5-----5-----5--0--|


  E  E  E  E  E  E  E  E     E  E  E  E  E  E  E  E   
--------------------------|--------------------------|
--------------------------|--------------------------|
--------------------------|--------------------------|
--5-----5-----5-----5-----|--5-----5-----5-----5--0--|


  E  E  E  E  E  E  E  E     E  E  E  E  E  E  E  E   
--------------------------|--------------------------|
--------------------------|--------------------------|
--------------------------|--------------------------|
--5-----5-----5-----5-----|--5-----5-----5--0--0--0--|


  E  E  E  E  E  E  E  E     E  E  E  E  E  E  E  E   
--------------------------|--------------------------|
--------------------------|--------------------------|
-----------------4--5--7--|--------------------------|
--5-----5-----5-----------|--5-----5-----5--0--2--3--|


  E  E  E  E  E  E  E  E     E  E  E  E  E  E  E  E   
--------------------------|--------------------------|
--------------------------|--------------------------|
-----------------4--5--7--|--------------------------|
--5-----5-----5-----------|--3--3--3--3--3--3--3-----|


  E  E  E  E  E  E  E  E     E  E  E  E  E  E  E  E   
--------------------------|--------------------------|
--------------------------|--------------------------|
-----------------4--5--7--|--------------------------|
--5-----5-----5-----------|--5-----5-----5--0--2--3--|


  E  E  E  E  E  E  E  E     W                   Q.     Q    Q    E   
--------------------------|--7----------------|----------------------|
--------------------------|-------------------|----------------------|
-----------------4--5--7--|--5----------------|--5------0------------|
--5-----5-----5-----------|-------------------|--------------3----5--|


  E  E  H.              E  E  H.              E  E  E  E  E  E  E  E   
---------------------|---------------------|--------------------------|
--5--4---------------|---------------------|--------------------------|
--------5------------|--5------------------|--------------------------|
---------------------|---------------------|--5-----5-----5-----5-----|


  E  E  E  E  E  E  E  E     E  E  E  E  E  E  E  E   
--------------------------|--------------------------|
--------------------------|--------------------------|
--------------------------|--------------------------|
--5-----5-----5-----5-----|--5-----5-----5-----5-----|


  E  E  E  E  E  E  E  E     E  E  E  E  E  E  E  E   
--------------------------|--------------------------|
--------------------------|--------------------------|
--------------------------|--------------------------|
--5-----5-----5-----5-----|--5-----5-----5-----5-----|


  E  E  E  E  E  E  E  E     E  E  E  E  E  E  E  E   
--------------------------|--------------------------|
--------------------------|--------------------------|
--------------------------|--------------------------|
--5-----5-----5-----5-----|--5-----5-----5-----5-----|


  E  E  E  E  E  E  E  E     E  E  E  E  E  E  E  E   
--------------------------|--------------------------|
--------------------------|--------------------------|
--------------------------|--------------------------|
--5-----5-----5--0--2--3--|--5-----5-----5-----5-----|


  E  E  E  E  E  E  E  E     E  E  E  E  E  E  E  E   
--------------------------|--------------------------|
--------------------------|--------------------------|
--------------------------|--------------------------|
--5-----5-----5-----5--0--|--5-----5-----5-----5-----|


  E  E  E  E  E  E  E  E     E  E  E  E  E  E  E  E   
--------------------------|--------------------------|
--------------------------|--------------------------|
--------------------------|--------------------------|
--5-----5-----5-----5--0--|--5-----5-----5-----5-----|


  E  E  E  E  E  E  E  E     E  E  E  E  E  E  E  E   
--------------------------|--------------------------|
--------------------------|--------------------------|
--------------------------|--------------------------|
--5-----5-----5-----5--0--|--5-----5-----5-----5-----|


  E  E  E  E  E  E  E  E     E  E  E  E  E  E  E  E   
--------------------------|--------------------------|
--------------------------|--------------------------|
--------------------------|-----------------4--5--7--|
--5-----5-----5--0--0--0--|--5-----5-----5-----------|


  E  E  E  E  E  E  E  E     E  E  E  E  E  E  E  E   
--------------------------|--------------------------|
--------------------------|--------------------------|
--------------------------|-----------------4--5--7--|
--5-----5-----5--0--2--3--|--5-----5-----5-----------|


  E  E  E  E  E  E  E  E     E  E  E  E  E  E  E  E   
--------------------------|--------------------------|
--------------------------|--------------------------|
--------------------------|-----------------4--5--7--|
--3--3--3--3--3--3--3-----|--5-----5-----5-----------|


  E  E  E  E  E  E  E  E     E  E  E  E  E  E  E  E     W                 
--------------------------|--------------------------|--7----------------|
--------------------------|--------------------------|-------------------|
--------------------------|-----------------4--5--7--|--5----------------|
--5-----5-----5--0--2--3--|--5-----5-----5-----------|-------------------|


  Q.     Q    Q    E     E  E  H.              E  E  H         
----------------------|---------------------|-----------------|
----------------------|--5--4---------------|-----------------|
--5------0------------|--------5------------|--5--------------|
--------------3----5--|---------------------|-----------------|


  E  E  H.              E  E  E  E  E  E  E   E     W                 
---------------------|---------------------------|-------------------|
---------------------|---------------------------|-------------------|
---------------------|--5--------5--------3b--0--|--L----------------|
--5------------------|---------------------------|-------------------|


  E  E  E  E  E  E  E   E     W                   E  E  E  E  E  E  E   E   
---------------------------|-------------------|---------------------------|
---------------------------|-------------------|---------------------------|
--5--------5--------3b--0--|--L----------------|--5--------5--------3b--0--|
---------------------------|-------------------|---------------------------|


  W                   E  E  E  E  E  E  E   E     Q    Q    Q    Q     
-------------------|---------------------------|----------------------|
-------------------|---------------------------|----------------------|
--L----------------|--5--------5--------3b--0--|----------------------|
-------------------|---------------------------|-------5---------5----|


  Q    Q    Q    Q       Q    Q    Q    Q       Q    Q    Q    E  E   
----------------------|----------------------|-----------------------|
----------------------|----------------------|-----------------------|
----------------------|----------------------|-----------------3-----|
-------5---------5----|-------5---------5----|-------5------------5--|


  Q    Q    Q    Q       Q    Q    Q    Q       Q    Q    Q    Q     
----------------------|----------------------|----------------------|
----------------------|----------------------|----------------------|
----------------------|----------------------|----------------------|
--L----5---------5----|-------5---------5----|-------5---------5----|


  Q    Q    Q    E  E     Q    Q    Q    Q       Q    Q    Q    S S S S  
-----------------------|----------------------|-------------------------|
-----------------------|----------------------|-------------------------|
-----------------3-----|----------------------|-------------------------|
-------5------------5--|--L----5---------5----|-------5---------5-5-5---|


  E  E  E  E  E  E  E  E     E  E  E  E  E  E  E  E   
--------------------------|--------------------------|
--------------------------|--------------------------|
--------------------------|--------------------------|
--3--3--3--3--3--3--3--3--|--3--3--3--3--2--2--0--0--|


  E  E  E  E  E  E  E  E     Q.     Q.        E  E  E  E  E  E  E  E   
--------------------------|----------------|--------------------------|
--------------------------|----------------|--------------------------|
--5--5--5--5--5--5--5-----|--5------5------|--------------------------|
--------------------------|----------------|--5-----5-----5-----5-----|


  E  E  E  E  E  E  E  E     E  E  E  E  E  E  E  E   
--------------------------|--------------------------|
--------------------------|--------------------------|
--------------------------|--------------------------|
--5-----5-----5-----5-----|--5-----5-----5-----5-----|


  E  E  E  E  E  E  E  E     E  E  E  E  E  E  E  E   
--------------------------|--------------------------|
--------------------------|--------------------------|
--------------------------|--------------------------|
--5-----5-----5-----5-----|--5-----5-----5-----5-----|


  E  E  E  E  E  E  E  E     E  E  E  E  E  E  E  E   
--------------------------|--------------------------|
--------------------------|--------------------------|
--------------------------|--------------------------|
--5-----5-----5-----5-----|--5-----5-----5-----5-----|


  E  E  E  E  E  E  E  E     E  E  E  E  E  E  E  E   
--------------------------|--------------------------|
--------------------------|--------------------------|
--------------------------|--------------------------|
--5-----5-----5--0--2--3--|--5-----5-----5-----5-----|


  E  E  E  E  E  E  E  E     E  E  E  E  E  E  E  E   
--------------------------|--------------------------|
--------------------------|--------------------------|
--------------------------|--------------------------|
--5-----5-----5-----5--0--|--5-----5-----5-----5-----|


  E  E  E  E  E  E  E  E     E  E  E  E  E  E  E  E   
--------------------------|--------------------------|
--------------------------|--------------------------|
--------------------------|--------------------------|
--5-----5-----5-----5--0--|--5-----5-----5-----5-----|


  E  E  E  E  E  E  E  E     E  E  E  E  E  E  E  E   
--------------------------|--------------------------|
--------------------------|--------------------------|
--------------------------|--------------------------|
--5-----5-----5-----5--0--|--5-----5-----5-----5-----|


  E  E  E  E  E  E  E  E     E  E  E  E  E  E  E  E   
--------------------------|--------------------------|
--------------------------|--------------------------|
--------------------------|-----------------4--5--7--|
--5-----5-----5--0--0--0--|--5-----5-----5-----------|


  E  E  E  E  E  E  E  E     E  E  E  E  E  E  E  E   
--------------------------|--------------------------|
--------------------------|--------------------------|
--------------------------|-----------------4--5--7--|
--5-----5-----5--0--2--3--|--5-----5-----5-----------|


  E  E  E  E  E  E  E  E     E  E  E  E  E  E  E  E   
--------------------------|--------------------------|
--------------------------|--------------------------|
--------------------------|-----------------4--5--7--|
--3--3--3--3--3--3--3--3--|--5-----5-----5-----------|


  E  E  E  E  E  E  E  E     E  E  E  E  E  E  E  E   
--------------------------|--------------------------|
--------------------------|--------------------------|
--------------------------|-----------------4--5--7--|
--5-----5-----5--0--2--3--|--5-----5-----5-----------|


  E  E  E  E  E  E  E  E     E  E  E  E  E  E  E  E   
--7-----7-----7-----7-----|--------------------------|
--------------------------|--------------------------|
--5-----5-----5-----5-----|--5-----5--3--3--2--2-----|
--------------------------|-----------------------3--|


  E  E  E  E  E  E  E  E     E  E  E  E  E  E  E  E   
--------------------------|--------------------------|
--------------------------|--------------------------|
-----------------4--5--7--|--------------------------|
--5-----5-----5-----------|--5-----5-----5--0--2--3--|


  E  E  E  E  E  E  E  E     E  E  E  E  E  E  E  E   
--------------------------|--------------------------|
--------------------------|--------------------------|
-----------------4--5--7--|--------------------------|
--5-----5-----5-----------|--3--3--3--3--3--3--3--3--|


  E  E  E  E  E  E  E  E     E  E  E  E  E  E  E  E   
--------------------------|--------------------------|
--------------------------|--------------------------|
-----------------4--5--7--|--------------------------|
--5-----5-----5-----------|--5-----5-----5--0--2--3--|


  E  E  E  E  E  E  E  E     E  E  E  E  E  E  E  E   
--------------------------|--7-----7-----7-----7-----|
--------------------------|--------------------------|
-----------------4--5--7--|--5-----5-----5-----5-----|
--5-----5-----5-----------|--------------------------|


  E  E  E  E  E  E  E  E     E  E  E  E  E  E  E  E   
--------------------------|--------------------------|
--------------------------|--------------------------|
-----------------4--5--7--|--------------------------|
--5-----5-----5-----------|--5-----5-----5--0--2--3--|


  E  E  E  E  E  E  E  E     E  E  E  E  E  E  E  E   
--------------------------|--------------------------|
--------------------------|--------------------------|
-----------------4--5--7--|--------------------------|
--5-----5-----5-----------|--3--3--3--3--3--3--3--3--|


  E  E  E  E  E  E  E  E     E  E  E  E  E  E  E  E   
--------------------------|--------------------------|
--------------------------|--------------------------|
-----------------4--5--7--|--------------------------|
--5-----5-----5-----------|--5-----5-----5--0--2--3--|


  E  E  E  E  E  E  E  E     E  E  E  E  E  E  E  E   
--------------------------|--7-----7-----7-----7-----|
--------------------------|--------------------------|
-----------------4--5--7--|--5-----5-----5-----5-----|
--5-----5-----5-----------|--------------------------|


  E  E  E  E  E  E  E  E     E  E  E  E  E  E  E  E   
--------------------------|--------------------------|
--------------------------|--------------------------|
--5-----5--3--3--2--2-----|-----------------4--5--7--|
-----------------------3--|--5-----5-----5-----------|


  E  E  E  E  E  E  E  E     E  E  E  E  E  E  E  E   
--------------------------|--------------------------|
--------------------------|--------------------------|
--------------------------|-----------------4--5--7--|
--5-----5-----5--0--2--3--|--5-----5-----5-----------|


  E  E  E  E  E  E  E  E     E  E  E  E  E  E  E  E   
--------------------------|--------------------------|
--------------------------|--------------------------|
--------------------------|-----------------4--5--7--|
--3--3--3--3--3--3--3--3--|--5-----5-----5-----------|


  E  E  E  E  E  E  E  E     E  E  E  E  E  E  E  E    
--------------------------|--------------------------||
--------------------------|--------------------------||
--------------------------|-----------------4--5--7--||
--5-----5-----5--0--2--3--|--5-----5-----5-----------||




Duration Legend
---------------
W - whole
H - half
Q - quarter
E - 8th
S - 16th
T - 32nd
X - 64th
. - note dotted
|-n-|  - n-tuplets


Tablature Legend
----------------
L - tied note
x - dead note
g - grace note
(n) - ghost note
> - accentuded note
NH - natural harmonic
AH - artificial harmonic
TH - tapped harmonic
SH - semi harmonic
PH - pitch harmonic
h - hammer on
p - pull off
b - bend
br - bendRelease
pb - preBend
pbr - preBendRelease
brb - bendReleaseBend
\n/ - tremolo bar dip
\n - tremolo bar dive
-/n - tremolo bar Release up
/n\ - tremolo bar inverted dip
/n - tremolo bar return
-\n - tremolo bar Release down
S - shift slide
s - legato slide
/ -  slide into from below or out of upwards
\ -  slide into from above or out of downwards
~ - vibrato
W - wide vibrato
tr - trill
TP - tremolo picking
T - tapping
S - slap
P - pop
< - fade in
^ - brush up
v - brush down
            
Submit corrections

comments powered by Disqus
↑ Back to top | Sammy Hagar Bass for I'll Fall In Love Again. Lyrics for acoustic guitar and electric guitar. 1 Tablatures and chords are parodies/interpretations of the original songs. You may use it for private study, scholarship, research or language learning purposes only