» » »

To Walk The Night Bass tabs (ver.1)

Artists:  A B C D E F G H I J K L M N O P Q R S T U V W X Y Z # 

To Walk The Night Bass tabs (ver.1)

Samhain
Rating:
0/5 (0 votes)

Hard to play? Try these video lessons and learn fast.
                Verse-A(x8)
G|----------------------------------|
D|----------------------------------|
A|------5-4-44-5-0------------------|
E|0-00------------------------------|


Chorus(x1)
G|--------------------------------------------------------------------|
D|--------------------------------------------------------------------|
A|-----------------4444444444444444------------------4444444444444444-|
E|5555555555555555------------------5555555555555555------------------|

G|----------------------------------|
D|----------------------------------|
A|55555555-44444444-0---------------|
E|----------------------------------|


Verse-B(x4)
G|-----------------------------------|
D|-----------------------------------|
A|------5-44-44-5-0------------------|
E|00-00------------------------------|


Chorus(x1)
G|--------------------------------------------------------------------|
D|--------------------------------------------------------------------|
A|-----------------4444444444444444------------------4444444444444444-|
E|5555555555555555------------------5555555555555555------------------|

G|----------------------------------|
D|----------------------------------|
A|55555555-44444444-0---------------|
E|----------------------------------|


Verse-A(x4)
G|----------------------------------|
D|----------------------------------|
A|------5-4-44-5-0------------------|
E|0-00------------------------------|

End(x1)
G|----------------------------------|
D|----------------------------------|
A|------5-4~------------------------|
E|0-00------------------------------|
            
Hard to play? Try these video lessons and learn fast. | Correct




comments powered by Disqus
↑ Back to top | Tablatures and chords are parodies/interpretations of the original songs. You may use it for private study, scholarship, research or language learning purposes only