» » »

Samhain, To Walk The Night Bass tabs (ver.2)

Artists:  A B C D E F G H I J K L M N O P Q R S T U V W X Y Z # 

To Walk The Night Bass tabs (ver.2)

Samhain Tabs
Rating:
0/5 (0 votes)
To Walk The Night lessons Tabs too difficult? Try these video lessons and learn fast
                To Walk The Night

G|-----------------------|
D|-----------------------|
A|--------5--4--4-4--5---|
E|-0--0-0----------------|

G|------------------|
D|------------------|
A|--------5--4------|
E|-0--0-0-----------|

G|---------------------------------|---------------------------------|
D|---------------------------------|---------------------------------|
A|---------------------------------|---------------------------------|
E|-3-3-3-3-3-3-3-3-3-3-3-3-3-3-3-3-|-7-7-7-7-7-7-7-7-7-7-7-7-7-7-7-7-|

G|---------------------------------|--------------------|
D|---------------------------------|--------------------|
A|---------------------------------|--------------------|
E|-8-8-8-8-8-8-8-8-7-7-7-7-7-7-7-7-|-0------------------|

G|---------------------------|
D|---------------------------|
A|--------5--4---4--4--5-----|
E|-3--3-3--------------------|

G|---------------------------|
D|---------------------------|
A|--------5--4---4--4--5-----|
E|-3--3-3--------------------|

G|---------------------------|
D|---------------------------|
A|--------5--4---4--4--5-----|
E|-3--3-3--------------------|

G|---------------------------|
D|---------------------------|
A|--------5--4---4--4--5-----|
E|-3--3-3--------------------|

G|
D|
A|
E|
            
Submit corrections

comments powered by Disqus
↑ Back to top | Samhain Bass for To Walk The Night. Lyrics for acoustic guitar and electric guitar. Tablatures and chords are parodies/interpretations of the original songs. You may use it for private study, scholarship, research or language learning purposes only